  0
SECTION
  2
HEADER
  9
$ACADVER
  1
AC1027
  9
$ACADMAINTVER
 70
   105
  9
$DWGCODEPAGE
  3
ANSI_1252
  9
$COMMENTS
  1
File was created by Cadenas
  9
$LASTSAVEDBY
  1
psService
  9
$CUSTOMPROPERTYTAG
  1
NB
  9
$CUSTOMPROPERTY
  1
ECX 4151
  9
$CUSTOMPROPERTYTAG
  1
NN
  9
$CUSTOMPROPERTY
  1
ECX 4X5X
  9
$CUSTOMPROPERTYTAG
  1
NT
  9
$CUSTOMPROPERTY
  1
Double button
  9
$CUSTOMPROPERTYTAG
  1
NBSYN
  9
$CUSTOMPROPERTY
  1
$CODE.
  9
$CUSTOMPROPERTYTAG
  1
LINA
  9
$CUSTOMPROPERTY
  1
ECX 4151
  9
$CUSTOMPROPERTYTAG
  1
CATALOG
  9
$CUSTOMPROPERTY
  1
Comepi
  9
$CUSTOMPROPERTYTAG
  1
CODE
  9
$CUSTOMPROPERTY
  1
ECX 4151
  9
$CUSTOMPROPERTYTAG
  1
DSCR
  9
$CUSTOMPROPERTY
  1
Double button
  9
$CUSTOMPROPERTYTAG
  1
MAT
  9
$CUSTOMPROPERTY
  1
Plastic
  9
$CUSTOMPROPERTYTAG
  1
COL
  9
$CUSTOMPROPERTY
  1
Green/Red
  9
$CUSTOMPROPERTYTAG
  1
LUM
  9
$CUSTOMPROPERTY
  1
Yes
  9
$CUSTOMPROPERTYTAG
  1
FUNZ
  9
$CUSTOMPROPERTY
  1
Momentary
  9
$CUSTOMPROPERTYTAG
  1
DEST
  9
$CUSTOMPROPERTY
  1
55x29.5
  9
$CUSTOMPROPERTYTAG
  1
IP
  9
$CUSTOMPROPERTY
  1
65
  9
$CUSTOMPROPERTYTAG
  1
COMPANY
  9
$CUSTOMPROPERTY
  1
comepi
  9
$REQUIREDVERSIONS
160
                 0
  9
$INSBASE
 10
0.0
 20
0.0
 30
0.0
  9
$EXTMIN
 10
-15.0
 20
-18.27
 30
0.0
  9
$EXTMAX
 10
23.42237288135593
 20
12.50542372881356
 30
0.0
  9
$LIMMIN
 10
0.0
 20
0.0
  9
$LIMMAX
 10
420.0
 20
297.0
  9
$ORTHOMODE
 70
     0
  9
$REGENMODE
 70
     1
  9
$FILLMODE
 70
     1
  9
$QTEXTMODE
 70
     0
  9
$MIRRTEXT
 70
     1
  9
$LTSCALE
 40
1.0
  9
$ATTMODE
 70
     1
  9
$TEXTSIZE
 40
2.5
  9
$TRACEWID
 40
1.0
  9
$TEXTSTYLE
  7
Standard
  9
$CLAYER
  8
0
  9
$CELTYPE
  6
ByLayer
  9
$CECOLOR
 62
   256
  9
$CELTSCALE
 40
1.0
  9
$DISPSILH
 70
     0
  9
$DIMSCALE
 40
1.0
  9
$DIMASZ
 40
2.5
  9
$DIMEXO
 40
0.625
  9
$DIMDLI
 40
3.75
  9
$DIMRND
 40
0.0
  9
$DIMDLE
 40
0.0
  9
$DIMEXE
 40
1.25
  9
$DIMTP
 40
0.0
  9
$DIMTM
 40
0.0
  9
$DIMTXT
 40
2.5
  9
$DIMCEN
 40
2.5
  9
$DIMTSZ
 40
0.0
  9
$DIMTOL
 70
     0
  9
$DIMLIM
 70
     0
  9
$DIMTIH
 70
     0
  9
$DIMTOH
 70
     0
  9
$DIMSE1
 70
     0
  9
$DIMSE2
 70
     0
  9
$DIMTAD
 70
     1
  9
$DIMZIN
 70
     8
  9
$DIMBLK
  1

  9
$DIMASO
 70
     1
  9
$DIMSHO
 70
     1
  9
$DIMPOST
  1

  9
$DIMAPOST
  1

  9
$DIMALT
 70
     0
  9
$DIMALTD
 70
     3
  9
$DIMALTF
 40
0.03937007874016
  9
$DIMLFAC
 40
1.0
  9
$DIMTOFL
 70
     1
  9
$DIMTVP
 40
0.0
  9
$DIMTIX
 70
     0
  9
$DIMSOXD
 70
     0
  9
$DIMSAH
 70
     0
  9
$DIMBLK1
  1

  9
$DIMBLK2
  1

  9
$DIMSTYLE
  2
ISO-25
  9
$DIMCLRD
 70
     0
  9
$DIMCLRE
 70
     0
  9
$DIMCLRT
 70
     0
  9
$DIMTFAC
 40
1.0
  9
$DIMGAP
 40
0.625
  9
$DIMJUST
 70
     0
  9
$DIMSD1
 70
     0
  9
$DIMSD2
 70
     0
  9
$DIMTOLJ
 70
     0
  9
$DIMTZIN
 70
     8
  9
$DIMALTZ
 70
     0
  9
$DIMALTTZ
 70
     0
  9
$DIMUPT
 70
     0
  9
$DIMDEC
 70
     2
  9
$DIMTDEC
 70
     2
  9
$DIMALTU
 70
     2
  9
$DIMALTTD
 70
     3
  9
$DIMTXSTY
  7
Standard
  9
$DIMAUNIT
 70
     0
  9
$DIMADEC
 70
     0
  9
$DIMALTRND
 40
0.0
  9
$DIMAZIN
 70
     0
  9
$DIMDSEP
 70
    44
  9
$DIMATFIT
 70
     3
  9
$DIMFRAC
 70
     0
  9
$DIMLDRBLK
  1

  9
$DIMLUNIT
 70
     2
  9
$DIMLWD
 70
    -2
  9
$DIMLWE
 70
    -2
  9
$DIMTMOVE
 70
     0
  9
$DIMFXL
 40
1.0
  9
$DIMFXLON
 70
     0
  9
$DIMJOGANG
 40
0.7853981633974483
  9
$DIMTFILL
 70
     0
  9
$DIMTFILLCLR
 70
     0
  9
$DIMARCSYM
 70
     0
  9
$DIMLTYPE
  6

  9
$DIMLTEX1
  6

  9
$DIMLTEX2
  6

  9
$DIMTXTDIRECTION
 70
     0
  9
$LUNITS
 70
     2
  9
$LUPREC
 70
     4
  9
$SKETCHINC
 40
1.0
  9
$FILLETRAD
 40
0.0
  9
$AUNITS
 70
     0
  9
$AUPREC
 70
     0
  9
$MENU
  1
.
  9
$ELEVATION
 40
0.0
  9
$PELEVATION
 40
0.0
  9
$THICKNESS
 40
0.0
  9
$LIMCHECK
 70
     0
  9
$CHAMFERA
 40
0.0
  9
$CHAMFERB
 40
0.0
  9
$CHAMFERC
 40
0.0
  9
$CHAMFERD
 40
0.0
  9
$SKPOLY
 70
     0
  9
$TDCREATE
 40
2460938.668080752
  9
$TDUCREATE
 40
2460938.584747419
  9
$TDUPDATE
 40
2460938.668080926
  9
$TDUUPDATE
 40
2460938.584747593
  9
$TDINDWG
 40
0.0000000116
  9
$TDUSRTIMER
 40
0.0000000116
  9
$USRTIMER
 70
     1
  9
$ANGBASE
 50
0.0
  9
$ANGDIR
 70
     0
  9
$PDMODE
 70
     0
  9
$PDSIZE
 40
0.0
  9
$PLINEWID
 40
0.0
  9
$SPLFRAME
 70
     0
  9
$SPLINETYPE
 70
     6
  9
$SPLINESEGS
 70
     8
  9
$HANDSEED
  5
17F
  9
$SURFTAB1
 70
     6
  9
$SURFTAB2
 70
     6
  9
$SURFTYPE
 70
     6
  9
$SURFU
 70
     6
  9
$SURFV
 70
     6
  9
$UCSBASE
  2

  9
$UCSNAME
  2

  9
$UCSORG
 10
0.0
 20
0.0
 30
0.0
  9
$UCSXDIR
 10
1.0
 20
0.0
 30
0.0
  9
$UCSYDIR
 10
0.0
 20
1.0
 30
0.0
  9
$UCSORTHOREF
  2

  9
$UCSORTHOVIEW
 70
     0
  9
$UCSORGTOP
 10
0.0
 20
0.0
 30
0.0
  9
$UCSORGBOTTOM
 10
0.0
 20
0.0
 30
0.0
  9
$UCSORGLEFT
 10
0.0
 20
0.0
 30
0.0
  9
$UCSORGRIGHT
 10
0.0
 20
0.0
 30
0.0
  9
$UCSORGFRONT
 10
0.0
 20
0.0
 30
0.0
  9
$UCSORGBACK
 10
0.0
 20
0.0
 30
0.0
  9
$PUCSBASE
  2

  9
$PUCSNAME
  2

  9
$PUCSORG
 10
0.0
 20
0.0
 30
0.0
  9
$PUCSXDIR
 10
1.0
 20
0.0
 30
0.0
  9
$PUCSYDIR
 10
0.0
 20
1.0
 30
0.0
  9
$PUCSORTHOREF
  2

  9
$PUCSORTHOVIEW
 70
     0
  9
$PUCSORGTOP
 10
0.0
 20
0.0
 30
0.0
  9
$PUCSORGBOTTOM
 10
0.0
 20
0.0
 30
0.0
  9
$PUCSORGLEFT
 10
0.0
 20
0.0
 30
0.0
  9
$PUCSORGRIGHT
 10
0.0
 20
0.0
 30
0.0
  9
$PUCSORGFRONT
 10
0.0
 20
0.0
 30
0.0
  9
$PUCSORGBACK
 10
0.0
 20
0.0
 30
0.0
  9
$USERI1
 70
     0
  9
$USERI2
 70
     0
  9
$USERI3
 70
     0
  9
$USERI4
 70
     0
  9
$USERI5
 70
     0
  9
$USERR1
 40
0.0
  9
$USERR2
 40
0.0
  9
$USERR3
 40
0.0
  9
$USERR4
 40
0.0
  9
$USERR5
 40
0.0
  9
$WORLDVIEW
 70
     1
  9
$SHADEDGE
 70
     3
  9
$SHADEDIF
 70
    70
  9
$TILEMODE
 70
     1
  9
$MAXACTVP
 70
    64
  9
$PINSBASE
 10
0.0
 20
0.0
 30
0.0
  9
$PLIMCHECK
 70
     0
  9
$PEXTMIN
 10
1.000000000000000E+20
 20
1.000000000000000E+20
 30
1.000000000000000E+20
  9
$PEXTMAX
 10
-1.000000000000000E+20
 20
-1.000000000000000E+20
 30
-1.000000000000000E+20
  9
$PLIMMIN
 10
0.0
 20
0.0
  9
$PLIMMAX
 10
420.0
 20
297.0
  9
$UNITMODE
 70
     0
  9
$VISRETAIN
 70
     1
  9
$PLINEGEN
 70
     0
  9
$PSLTSCALE
 70
     1
  9
$TREEDEPTH
 70
  3020
  9
$CMLSTYLE
  2
Standard
  9
$CMLJUST
 70
     0
  9
$CMLSCALE
 40
20.0
  9
$PROXYGRAPHICS
 70
     1
  9
$MEASUREMENT
 70
     1
  9
$CELWEIGHT
370
    -1
  9
$ENDCAPS
280
     0
  9
$JOINSTYLE
280
     0
  9
$LWDISPLAY
290
     0
  9
$INSUNITS
 70
     4
  9
$HYPERLINKBASE
  1

  9
$STYLESHEET
  1

  9
$XEDIT
290
     1
  9
$CEPSNTYPE
380
     0
  9
$PSTYLEMODE
290
     1
  9
$FINGERPRINTGUID
  2
{0a9e33bf-ca64-4de5-850c-6324e062e2aa}
  9
$VERSIONGUID
  2
{FAEB1C32-E019-11D5-929B-00C0DF256EC4}
  9
$EXTNAMES
290
     1
  9
$PSVPSCALE
 40
0.0
  9
$OLESTARTUP
290
     0
  9
$SORTENTS
280
   127
  9
$INDEXCTL
280
     0
  9
$HIDETEXT
280
     1
  9
$XCLIPFRAME
280
     2
  9
$HALOGAP
280
     0
  9
$OBSCOLOR
 70
   257
  9
$OBSLTYPE
280
     0
  9
$INTERSECTIONDISPLAY
280
     0
  9
$INTERSECTIONCOLOR
 70
   257
  9
$DIMASSOC
280
     2
  9
$PROJECTNAME
  1

  9
$CAMERADISPLAY
290
     0
  9
$LENSLENGTH
 40
50.0
  9
$CAMERAHEIGHT
 40
0.0
  9
$STEPSPERSEC
 40
2.0
  9
$STEPSIZE
 40
6.0
  9
$3DDWFPREC
 40
2.0
  9
$PSOLWIDTH
 40
5.0
  9
$PSOLHEIGHT
 40
80.0
  9
$LOFTANG1
 40
1.570796326794897
  9
$LOFTANG2
 40
1.570796326794897
  9
$LOFTMAG1
 40
0.0
  9
$LOFTMAG2
 40
0.0
  9
$LOFTPARAM
 70
     7
  9
$LOFTNORMALS
280
     1
  9
$LATITUDE
 40
37.795
  9
$LONGITUDE
 40
-122.394
  9
$NORTHDIRECTION
 40
0.0
  9
$TIMEZONE
 70
 -8000
  9
$LIGHTGLYPHDISPLAY
280
     1
  9
$TILEMODELIGHTSYNCH
280
     1
  9
$CMATERIAL
347
44
  9
$SOLIDHIST
280
     0
  9
$SHOWHIST
280
     1
  9
$DWFFRAME
280
     2
  9
$DGNFRAME
280
     2
  9
$REALWORLDSCALE
290
     1
  9
$INTERFERECOLOR
 62
   256
  9
$CSHADOW
280
     0
  9
$SHADOWPLANELOCATION
 40
0.0
  0
ENDSEC
  0
SECTION
  2
CLASSES
  0
CLASS
  1
ACDBDICTIONARYWDFLT
  2
AcDbDictionaryWithDefault
  3
ObjectDBX Classes
 90
        0
 91
        3
280
     0
281
     0
  0
CLASS
  1
VISUALSTYLE
  2
AcDbVisualStyle
  3
ObjectDBX Classes
 90
     4095
 91
        3
280
     0
281
     0
  0
CLASS
  1
MATERIAL
  2
AcDbMaterial
  3
ObjectDBX Classes
 90
     1153
 91
        3
280
     0
281
     0
  0
CLASS
  1
SCALE
  2
AcDbScale
  3
ObjectDBX Classes
 90
     1153
 91
        3
280
     0
281
     0
  0
CLASS
  1
TABLESTYLE
  2
AcDbTableStyle
  3
ObjectDBX Classes
 90
     4095
 91
        3
280
     0
281
     0
  0
CLASS
  1
MLEADERSTYLE
  2
AcDbMLeaderStyle
  3
ACDB_MLEADERSTYLE_CLASS
 90
     4095
 91
        3
280
     0
281
     0
  0
CLASS
  1
SUN
  2
AcDbSun
  3
SCENEOE
 90
     1153
 91
        3
280
     0
281
     0
  0
CLASS
  1
DICTIONARYVAR
  2
AcDbDictionaryVar
  3
ObjectDBX Classes
 90
        0
 91
        3
280
     0
281
     0
  0
CLASS
  1
CELLSTYLEMAP
  2
AcDbCellStyleMap
  3
ObjectDBX Classes
 90
     1152
 91
        3
280
     0
281
     0
  0
ENDSEC
  0
SECTION
  2
TABLES
  0
TABLE
  2
VPORT
  5
8
330
0
100
AcDbSymbolTable
 70
     1
  0
VPORT
  5
29
330
8
100
AcDbSymbolTableRecord
100
AcDbViewportTableRecord
  2
*Active
 70
     0
 10
0.0
 20
0.0
 11
1.0
 21
1.0
 12
4.25
 22
-2.833305084745774
 13
0.0
 23
0.0
 14
10.0
 24
10.0
 15
10.0
 25
10.0
 16
0.0
 26
0.0
 36
1.0
 17
0.0
 27
0.0
 37
0.0
 40
31.49085762711864
 41
1.247028596838921
 42
50.0
 43
0.0
 44
0.0
 50
0.0
 51
0.0
 71
     0
 72
   100
 73
     1
 74
     3
 75
     0
 76
     0
 77
     0
 78
     0
281
     0
 65
     1
110
0.0
120
0.0
130
0.0
111
1.0
121
0.0
131
0.0
112
0.0
122
1.0
132
0.0
 79
     0
146
0.0
348
2F
 60
     3
 61
     5
292
     1
282
     1
141
0.0
142
0.0
 63
   250
361
5D
  0
ENDTAB
  0
TABLE
  2
LTYPE
  5
5
330
0
100
AcDbSymbolTable
 70
     3
  0
LTYPE
  5
14
330
5
100
AcDbSymbolTableRecord
100
AcDbLinetypeTableRecord
  2
ByBlock
 70
     0
  3

 72
    65
 73
     0
 40
0.0
  0
LTYPE
  5
15
330
5
100
AcDbSymbolTableRecord
100
AcDbLinetypeTableRecord
  2
ByLayer
 70
     0
  3

 72
    65
 73
     0
 40
0.0
  0
LTYPE
  5
16
330
5
100
AcDbSymbolTableRecord
100
AcDbLinetypeTableRecord
  2
Continuous
 70
     0
  3
Solid line
 72
    65
 73
     0
 40
0.0
  0
LTYPE
  5
80
330
5
100
AcDbSymbolTableRecord
100
AcDbLinetypeTableRecord
  2
Dashed
 70
     0
  3

 72
    65
 73
     2
 40
2.0
 49
1.0
 74
     0
 49
-1.0
 74
     0
  0
LTYPE
  5
112
330
5
100
AcDbSymbolTableRecord
100
AcDbLinetypeTableRecord
  2
Center
 70
     0
  3

 72
    65
 73
     4
 40
1.5
 49
0.45
 74
     0
 49
-0.5
 74
     0
 49
0.05
 74
     0
 49
-0.5
 74
     0
  0
ENDTAB
  0
TABLE
  2
LAYER
  5
2
330
0
100
AcDbSymbolTable
 70
     8
  0
LAYER
  5
10
330
2
100
AcDbSymbolTableRecord
100
AcDbLayerTableRecord
  2
0
 70
     0
 62
     7
  6
Continuous
370
    -3
390
F
347
46
348
0
  0
LAYER
  5
5E
330
2
100
AcDbSymbolTableRecord
100
AcDbLayerTableRecord
  2
AM_6
 70
     0
 62
    -2
  6
Continuous
370
    35
390
F
347
46
348
0
  0
LAYER
  5
81
330
2
100
AcDbSymbolTableRecord
100
AcDbLayerTableRecord
  2
AM_9
 70
     0
 62
     6
  6
Dashed
370
    25
390
F
347
46
348
0
  0
LAYER
  5
A6
330
2
100
AcDbSymbolTableRecord
100
AcDbLayerTableRecord
  2
AM_5
 70
     0
 62
     3
  6
Continuous
370
    25
390
F
347
46
348
0
  0
LAYER
  5
A9
330
2
100
AcDbSymbolTableRecord
100
AcDbLayerTableRecord
  2
AM_0
 70
     0
 62
     7
  6
Continuous
370
    50
390
F
347
46
348
0
  0
LAYER
  5
C0
330
2
100
AcDbSymbolTableRecord
100
AcDbLayerTableRecord
  2
AM_4
 70
     0
 62
     3
  6
Continuous
370
    25
390
F
347
46
348
0
  0
LAYER
  5
113
330
2
100
AcDbSymbolTableRecord
100
AcDbLayerTableRecord
  2
AM_7
 70
     0
 62
     7
  6
Center
370
    25
390
F
347
46
348
0
  0
LAYER
  5
172
330
2
100
AcDbSymbolTableRecord
100
AcDbLayerTableRecord
  2
2d ConnectionPoints
 70
     0
 62
     7
  6
Continuous
370
    50
390
F
347
46
348
0
  0
ENDTAB
  0
TABLE
  2
STYLE
  5
3
330
0
100
AcDbSymbolTable
 70
     1
  0
STYLE
  5
11
330
3
100
AcDbSymbolTableRecord
100
AcDbTextStyleTableRecord
  2
Standard
 70
     0
 40
0.0
 41
1.0
 50
0.0
 71
     0
 42
2.5
  3
txt
  4

  0
ENDTAB
  0
TABLE
  2
VIEW
  5
6
330
0
100
AcDbSymbolTable
 70
     0
  0
ENDTAB
  0
TABLE
  2
UCS
  5
7
330
0
100
AcDbSymbolTable
 70
     0
  0
ENDTAB
  0
TABLE
  2
APPID
  5
9
330
0
100
AcDbSymbolTable
 70
     1
  0
APPID
  5
12
330
9
100
AcDbSymbolTableRecord
100
AcDbRegAppTableRecord
  2
ACAD
 70
     0
  0
ENDTAB
  0
TABLE
  2
DIMSTYLE
  5
A
330
0
100
AcDbSymbolTable
 70
     1
100
AcDbDimStyleTable
  0
DIMSTYLE
105
27
330
A
100
AcDbSymbolTableRecord
100
AcDbDimStyleTableRecord
  2
ISO-25
 70
     0
 41
2.5
 42
0.625
 43
3.75
 44
1.25
 73
     0
 74
     0
 77
     1
 78
     8
140
2.5
141
2.5
143
0.03937007874016
147
0.625
171
     3
172
     1
178
     0
271
     2
272
     2
274
     3
278
    44
283
     0
284
     8
340
11
  0
ENDTAB
  0
TABLE
  2
BLOCK_RECORD
  5
1
330
0
100
AcDbSymbolTable
 70
     3
  0
BLOCK_RECORD
  5
1F
330
1
100
AcDbSymbolTableRecord
100
AcDbBlockTableRecord
  2
*Model_Space
340
22
 70
     0
280
     1
281
     0
  0
BLOCK_RECORD
  5
1B
330
1
100
AcDbSymbolTableRecord
100
AcDbBlockTableRecord
  2
*Paper_Space
340
1E
 70
     0
280
     1
281
     0
  0
BLOCK_RECORD
  5
23
330
1
100
AcDbSymbolTableRecord
100
AcDbBlockTableRecord
  2
*Paper_Space0
340
26
 70
     0
280
     1
281
     0
  0
BLOCK_RECORD
  5
71
330
1
100
AcDbSymbolTableRecord
100
AcDbBlockTableRecord
  2
1_PL2727PI_0_in_ECX_4151_0
340
0
102
{BLKREFS
331
72
102
}
 70
     0
280
     1
281
     0
  0
BLOCK_RECORD
  5
D1
330
1
100
AcDbSymbolTableRecord
100
AcDbBlockTableRecord
  2
2_ECX_4151_button_0_in_ECX_4151_0
340
0
102
{BLKREFS
331
D2
102
}
 70
     0
280
     1
281
     0
  0
ENDTAB
  0
ENDSEC
  0
SECTION
  2
BLOCKS
  0
BLOCK
  5
20
330
1F
100
AcDbEntity
  8
0
100
AcDbBlockBegin
  2
*Model_Space
 70
     2
 10
0.0
 20
0.0
 30
0.0
  3
*Model_Space
  1

  0
ENDBLK
  5
21
330
1F
100
AcDbEntity
  8
0
100
AcDbBlockEnd
  0
BLOCK
  5
1C
330
1B
100
AcDbEntity
 67
     1
  8
0
100
AcDbBlockBegin
  2
*Paper_Space
 70
     0
 10
0.0
 20
0.0
 30
0.0
  3
*Paper_Space
  1

  0
ENDBLK
  5
1D
330
1B
100
AcDbEntity
 67
     1
  8
0
100
AcDbBlockEnd
  0
BLOCK
  5
24
330
23
100
AcDbEntity
  8
0
100
AcDbBlockBegin
  2
*Paper_Space0
 70
     0
 10
0.0
 20
0.0
 30
0.0
  3
*Paper_Space0
  1

  0
ENDBLK
  5
25
330
23
100
AcDbEntity
  8
0
100
AcDbBlockEnd
  0
BLOCK
  5
73
330
71
100
AcDbEntity
  8
0
100
AcDbBlockBegin
  2
1_PL2727PI_0_in_ECX_4151_0
 70
     2
 10
0.0
 20
0.0
 30
0.0
  3
1_PL2727PI_0_in_ECX_4151_0
  1

  0
ATTDEF
  5
75
330
71
100
AcDbEntity
  8
AM_6
100
AcDbText
 10
20.0
 20
-2.4
 30
0.0
 40
0.5
  1
PL2727PI
100
AcDbAttributeDefinition
  3

  2
NB
 70
     8
280
     0
  0
ATTDEF
  5
76
330
71
100
AcDbEntity
  8
AM_6
100
AcDbText
 10
20.0
 20
-2.9
 30
0.0
 40
0.5
  1
PL2727PI
100
AcDbAttributeDefinition
  3

  2
NN
 70
     8
280
     0
  0
ATTDEF
  5
77
330
71
100
AcDbEntity
  8
AM_6
100
AcDbText
 10
20.0
 20
-3.4
 30
0.0
 40
0.5
  1
Fixing Ring
100
AcDbAttributeDefinition
  3

  2
NT
 70
     8
280
     0
  0
ATTDEF
  5
78
330
71
100
AcDbEntity
  8
AM_6
100
AcDbText
 10
20.0
 20
-3.9
 30
0.0
 40
0.5
  1
$CODE.
100
AcDbAttributeDefinition
  3

  2
NBSYN
 70
     8
280
     0
  0
ATTDEF
  5
79
330
71
100
AcDbEntity
  8
AM_6
100
AcDbText
 10
20.0
 20
-4.4
 30
0.0
 40
0.5
  1
PL2727PI
100
AcDbAttributeDefinition
  3

  2
LINA
 70
     8
280
     0
  0
ATTDEF
  5
7A
330
71
100
AcDbEntity
  8
AM_6
100
AcDbText
 10
20.0
 20
-4.9
 30
0.0
 40
0.5
  1
Comepi
100
AcDbAttributeDefinition
  3

  2
CATALOG
 70
     8
280
     0
  0
ATTDEF
  5
7B
330
71
100
AcDbEntity
  8
AM_6
100
AcDbText
 10
20.0
 20
-5.4
 30
0.0
 40
0.5
  1
PL2727PI
100
AcDbAttributeDefinition
  3

  2
CODE
 70
     8
280
     0
  0
ATTDEF
  5
7C
330
71
100
AcDbEntity
  8
AM_6
100
AcDbText
 10
20.0
 20
-5.9
 30
0.0
 40
0.5
  1
comepi
100
AcDbAttributeDefinition
  3

  2
COMPANY
 70
     8
280
     0
  0
ATTDEF
  5
7D
330
71
100
AcDbEntity
  8
AM_6
100
AcDbText
 10
20.0
 20
-6.4
 30
0.0
 40
0.5
  1
1
100
AcDbAttributeDefinition
  3

  2
ExcludeFromBOM
 70
     8
280
     0
  0
ATTDEF
  5
7E
330
71
100
AcDbEntity
  8
AM_6
100
AcDbText
 10
20.0
 20
-6.9
 30
0.0
 40
0.5
  1
{$CADENAS_DATA/23d-libs/comepi/control_units/accessories/fixing_ring.prj},158 {VTYP=3D},{NB=PL2727PI},{LINA=PL2727PI},{NN=PL2727PI},{DATE=30.09.2024 09:57:41},{GEOMDATE=24.01.2020 09:06:27},{VERSION=},{LINEID=10},{WBVAR=},{WBNUMERIC=}  {NB=PL2727PI}
100
AcDbAttributeDefinition
  3

  2
PSOL_0
 70
     9
280
     0
  0
ATTDEF
  5
7F
330
71
100
AcDbEntity
  8
AM_6
100
AcDbText
 10
20.0
 20
-7.4
 30
0.0
 40
0.5
  1
=PL2727PI},{KT=DUMMY},{CODE=PL2727PI}
100
AcDbAttributeDefinition
  3

  2
PSOL_1
 70
     9
280
     0
  0
LINE
  5
82
330
71
100
AcDbEntity
  8
AM_9
100
AcDbLine
 10
12.25
 20
-3.4
 30
0.0
 11
12.25
 21
-2.5
 31
0.0
  0
LINE
  5
83
330
71
100
AcDbEntity
  8
AM_9
100
AcDbLine
 10
-12.25
 20
-2.5
 30
0.0
 11
-12.25
 21
-3.4
 31
0.0
  0
LINE
  5
84
330
71
100
AcDbEntity
  8
AM_9
100
AcDbLine
 10
13.79757918633803
 20
-2.5
 30
0.0
 11
11.27897787061973
 21
-2.5
 31
0.0
  0
LINE
  5
85
330
71
100
AcDbEntity
  8
AM_9
100
AcDbLine
 10
11.27897787061973
 20
-3.9
 30
0.0
 11
11.27897787061973
 21
-2.5
 31
0.0
  0
LINE
  5
86
330
71
100
AcDbEntity
  8
AM_9
100
AcDbLine
 10
-11.27897787061973
 20
-3.9
 30
0.0
 11
-11.27897787061973
 21
-2.5
 31
0.0
  0
LINE
  5
87
330
71
100
AcDbEntity
  8
AM_9
100
AcDbLine
 10
-11.27897787061973
 20
-2.5
 30
0.0
 11
-13.79757918633803
 21
-2.5
 31
0.0
  0
LINE
  5
88
330
71
100
AcDbEntity
  8
AM_9
100
AcDbLine
 10
9.778977870619732
 20
-3.9
 30
0.0
 11
9.77897787061973
 21
-2.5
 31
0.0
  0
LINE
  5
89
330
71
100
AcDbEntity
  8
AM_9
100
AcDbLine
 10
-9.778977870619729
 20
-3.9
 30
0.0
 11
-9.778977870619727
 21
-2.5
 31
0.0
  0
LINE
  5
8A
330
71
100
AcDbEntity
  8
AM_9
100
AcDbLine
 10
9.778977870619732
 20
-3.9
 30
0.0
 11
12.36895003862225
 21
-3.9
 31
0.0
  0
LINE
  5
8B
330
71
100
AcDbEntity
  8
AM_9
100
AcDbLine
 10
-12.36895003862225
 20
-3.9
 30
0.0
 11
-9.778977870619729
 21
-3.9
 31
0.0
  0
LINE
  5
8C
330
71
100
AcDbEntity
  8
AM_9
100
AcDbLine
 10
-10.3
 20
-4.1
 30
0.0
 11
-10.3
 21
-6.699999999999999
 31
0.0
  0
LINE
  5
8D
330
71
100
AcDbEntity
  8
AM_9
100
AcDbLine
 10
10.3
 20
-6.699999999999999
 30
0.0
 11
10.3
 21
-4.1
 31
0.0
  0
LINE
  5
8E
330
71
100
AcDbEntity
  8
AM_9
100
AcDbLine
 10
-8.389915427907798
 20
-7.4
 30
0.0
 11
-8.407565768978223
 21
-5.4
 31
0.0
  0
LINE
  5
8F
330
71
100
AcDbEntity
  8
AM_9
100
AcDbLine
 10
8.407565768978214
 20
-5.4
 30
0.0
 11
8.389915427907791
 21
-7.4
 31
0.0
  0
LINE
  5
90
330
71
100
AcDbEntity
  8
AM_9
100
AcDbLine
 10
10.3
 20
-4.1
 30
0.0
 11
-10.3
 21
-4.1
 31
0.0
  0
LINE
  5
91
330
71
100
AcDbEntity
  8
AM_9
100
AcDbLine
 10
10.3
 20
-4.1
 30
0.0
 11
11.0
 21
-3.4
 31
0.0
  0
LINE
  5
92
330
71
100
AcDbEntity
  8
AM_9
100
AcDbLine
 10
-11.0
 20
-3.4
 30
0.0
 11
-10.3
 21
-4.1
 31
0.0
  0
LINE
  5
93
330
71
100
AcDbEntity
  8
AM_9
100
AcDbLine
 10
-10.3
 20
-6.699999999999999
 30
0.0
 11
10.3
 21
-6.699999999999999
 31
0.0
  0
LINE
  5
94
330
71
100
AcDbEntity
  8
AM_9
100
AcDbLine
 10
-10.3
 20
-6.699999999999999
 30
0.0
 11
-11.0
 21
-7.4
 31
0.0
  0
LINE
  5
95
330
71
100
AcDbEntity
  8
AM_9
100
AcDbLine
 10
11.0
 20
-7.4
 30
0.0
 11
10.3
 21
-6.699999999999999
 31
0.0
  0
LINE
  5
96
330
71
100
AcDbEntity
  8
AM_9
100
AcDbLine
 10
-8.407565768978223
 20
-5.4
 30
0.0
 11
-9.151641059757862
 21
-3.926647735342927
 31
0.0
  0
LINE
  5
97
330
71
100
AcDbEntity
  8
AM_9
100
AcDbLine
 10
-8.407565768978223
 20
-5.4
 30
0.0
 11
-9.142448420800674
 21
-5.4
 31
0.0
  0
LINE
  5
98
330
71
100
AcDbEntity
  8
AM_9
100
AcDbLine
 10
9.151641059757853
 20
-3.926647735342927
 30
0.0
 11
8.407565768978214
 21
-5.4
 31
0.0
  0
LINE
  5
99
330
71
100
AcDbEntity
  8
AM_9
100
AcDbLine
 10
9.14195781524279
 20
-5.4
 30
0.0
 11
8.407565768978214
 21
-5.4
 31
0.0
  0
LINE
  5
9A
330
71
100
AcDbEntity
  8
AM_9
100
AcDbLine
 10
12.25
 20
-3.4
 30
0.0
 11
-12.25
 21
-3.4
 31
0.0
  0
LINE
  5
9B
330
71
100
AcDbEntity
  8
AM_9
100
AcDbLine
 10
12.62823192030074
 20
-2.5
 30
0.0
 11
12.36895003862225
 21
-3.9
 31
0.0
  0
LINE
  5
9C
330
71
100
AcDbEntity
  8
AM_9
100
AcDbLine
 10
10.86895003862225
 20
-3.9
 30
0.0
 11
11.12823192030074
 21
-2.5
 31
0.0
  0
LINE
  5
9D
330
71
100
AcDbEntity
  8
AM_9
100
AcDbLine
 10
11.12823192030074
 20
-2.5
 30
0.0
 11
1.500000000000004
 21
-2.5
 31
0.0
  0
LINE
  5
9E
330
71
100
AcDbEntity
  8
AM_9
100
AcDbLine
 10
1.500000000000004
 20
-2.5
 30
0.0
 11
1.500000000000004
 21
-3.9
 31
0.0
  0
LINE
  5
9F
330
71
100
AcDbEntity
  8
AM_9
100
AcDbLine
 10
1.500000000000004
 20
-3.9
 30
0.0
 11
-1.499999999999998
 21
-3.9
 31
0.0
  0
LINE
  5
A0
330
71
100
AcDbEntity
  8
AM_9
100
AcDbLine
 10
-1.499999999999998
 20
-3.9
 30
0.0
 11
-1.499999999999998
 21
-2.5
 31
0.0
  0
LINE
  5
A1
330
71
100
AcDbEntity
  8
AM_9
100
AcDbLine
 10
-1.499999999999998
 20
-2.5
 30
0.0
 11
-11.12823192030073
 21
-2.5
 31
0.0
  0
LINE
  5
A2
330
71
100
AcDbEntity
  8
AM_9
100
AcDbLine
 10
-11.12823192030073
 20
-2.5
 30
0.0
 11
-10.86895003862225
 21
-3.9
 31
0.0
  0
LINE
  5
A3
330
71
100
AcDbEntity
  8
AM_9
100
AcDbLine
 10
-12.36895003862225
 20
-3.9
 30
0.0
 11
-12.62823192030073
 21
-2.5
 31
0.0
  0
LINE
  5
A4
330
71
100
AcDbEntity
  8
AM_9
100
AcDbLine
 10
13.79757918633803
 20
-2.5
 30
0.0
 11
13.81883484250503
 21
-2.4
 31
0.0
  0
LINE
  5
A5
330
71
100
AcDbEntity
  8
AM_9
100
AcDbLine
 10
-13.81883484250503
 20
-2.4
 30
0.0
 11
-13.79757918633803
 21
-2.5
 31
0.0
  0
LINE
  5
A7
330
71
100
AcDbEntity
  8
AM_5
  6
Dashed
100
AcDbLine
 10
11.0
 20
-3.4
 30
0.0
 11
11.0
 21
-7.399999999999999
 31
0.0
  0
LINE
  5
A8
330
71
100
AcDbEntity
  8
AM_5
  6
Dashed
100
AcDbLine
 10
-11.0
 20
-3.4
 30
0.0
 11
-11.0
 21
-7.399999999999999
 31
0.0
  0
LWPOLYLINE
  5
AA
330
71
100
AcDbEntity
  8
AM_0
100
AcDbPolyline
 90
        7
 70
     0
 43
0.0
 10
-14.28201970999618
 20
-7.399999999999999
 10
-14.35445432796377
 20
-7.394826876533938
 10
-14.51735587709126
 20
-7.342340512443673
 10
-14.65308490175903
 20
-7.238958684409553
 10
-14.71761035397056
 20
-7.152594612753614
 10
-14.77718149519984
 20
-6.996826386762378
 10
-14.78665582369708
 20
-6.908726203218642
  0
LINE
  5
AB
330
71
100
AcDbEntity
  8
AM_0
100
AcDbLine
 10
-14.42137604380106
 20
-7.4
 30
0.0
 11
-8.880638666570267
 21
-7.4
 31
0.0
  0
ARC
  5
AC
330
71
100
AcDbEntity
  8
AM_0
100
AcDbCircle
 10
-14.42137604380107
 20
-6.899999999999997
 30
0.0
 40
0.5000000000000012
100
AcDbArc
 50
181.0000000000003
 51
270.0000000000002
  0
LWPOLYLINE
  5
AD
330
71
100
AcDbEntity
  8
AM_0
100
AcDbPolyline
 90
        6
 70
     0
 43
0.0
 10
14.78665582369708
 20
-6.908726203218642
 10
14.77182789241229
 20
-7.020631639072225
 10
14.70488566157294
 20
-7.172995385135486
 10
14.59108798219499
 20
-7.295317356721291
 10
14.44226544867316
 20
-7.374141123711333
 10
14.28201970999617
 20
-7.399999999999999
  0
ARC
  5
AE
330
71
100
AcDbEntity
  8
AM_0
100
AcDbCircle
 10
14.42137604380107
 20
-6.899999999999997
 30
0.0
 40
0.5000000000000018
100
AcDbArc
 50
269.9999999999998
 51
358.9999999999997
  0
LINE
  5
AF
330
71
100
AcDbEntity
  8
AM_0
100
AcDbLine
 10
-13.35102992281869
 20
-5.4
 30
0.0
 11
-13.31572924067784
 21
-7.4
 31
0.0
  0
LINE
  5
B0
330
71
100
AcDbEntity
  8
AM_0
100
AcDbLine
 10
14.42137604380106
 20
-7.4
 30
0.0
 11
8.879937589485237
 21
-7.4
 31
0.0
  0
LINE
  5
B1
330
71
100
AcDbEntity
  8
AM_0
100
AcDbLine
 10
13.31572924067784
 20
-7.4
 30
0.0
 11
13.35102992281869
 21
-5.4
 31
0.0
  0
LINE
  5
B2
330
71
100
AcDbEntity
  8
AM_0
100
AcDbLine
 10
-14.83918050437797
 20
-3.926647735342927
 30
0.0
 11
-13.35102992281869
 21
-5.4
 31
0.0
  0
LINE
  5
B3
330
71
100
AcDbEntity
  8
AM_0
100
AcDbLine
 10
-9.142448420800674
 20
-5.4
 30
0.0
 11
-13.35102992281869
 21
-5.4
 31
0.0
  0
LINE
  5
B4
330
71
100
AcDbEntity
  8
AM_0
100
AcDbLine
 10
13.35102992281869
 20
-5.4
 30
0.0
 11
14.83918050437797
 21
-3.926647735342927
 31
0.0
  0
LINE
  5
B5
330
71
100
AcDbEntity
  8
AM_0
100
AcDbLine
 10
13.35102992281869
 20
-5.4
 30
0.0
 11
9.14195781524279
 21
-5.4
 31
0.0
  0
LWPOLYLINE
  5
B6
330
71
100
AcDbEntity
  8
AM_0
100
AcDbPolyline
 90
        7
 70
     0
 43
0.0
 10
8.873060662566958
 20
-7.399999999999999
 10
8.904715660996986
 20
-7.396053020725535
 10
8.9866277852744
 20
-7.346527741003328
 10
9.055443931885915
 20
-7.245603627044994
 10
9.10310058588459
 20
-7.105603850604742
 10
9.124468972711382
 20
-6.943309282423877
 10
9.12537871941741
 20
-6.908726203218642
  0
LWPOLYLINE
  5
B7
330
71
100
AcDbEntity
  8
AM_0
100
AcDbPolyline
 90
        6
 70
     0
 43
0.0
 10
-9.12537871941742
 20
-6.908726203218642
 10
-9.10994091911453
 20
-7.072429005542697
 10
-9.06827907755405
 20
-7.216882326039056
 10
-9.004918363871486
 20
-7.326342544733964
 10
-8.926428322958088
 20
-7.388697337089219
 10
-8.873060662566967
 20
-7.399999999999999
  0
LINE
  5
B8
330
71
100
AcDbEntity
  8
AM_0
100
AcDbLine
 10
-8.873060662566967
 20
-7.399999999999999
 30
0.0
 11
8.873060662566958
 21
-7.399999999999999
 31
0.0
  0
LWPOLYLINE
  5
B9
330
71
100
AcDbEntity
  8
AM_0
100
AcDbPolyline
 90
        7
 70
     0
 43
0.0
 10
-5.408959047429216
 20
-7.399999999999999
 10
-5.44061404585925
 20
-7.396053020725534
 10
-5.522526170136659
 20
-7.346527741003326
 10
-5.591342316748174
 20
-7.245603627044988
 10
-5.63899897074685
 20
-7.105603850604735
 10
-5.660367357573638
 20
-6.943309282423868
 10
-5.661277104279669
 20
-6.908726203218642
  0
LINE
  5
BA
330
71
100
AcDbEntity
  8
AM_0
100
AcDbLine
 10
-4.943464153840472
 20
-5.4
 30
0.0
 11
-4.925813812770048
 21
-7.4
 31
0.0
  0
LWPOLYLINE
  5
BB
330
71
100
AcDbEntity
  8
AM_0
100
AcDbPolyline
 90
        6
 70
     0
 43
0.0
 10
5.661277104279658
 20
-6.908726203218642
 10
5.645839303976768
 20
-7.072429005542697
 10
5.604177462416288
 20
-7.216882326039054
 10
5.540816748733723
 20
-7.326342544733964
 10
5.462326707820326
 20
-7.388697337089219
 10
5.408959047429204
 20
-7.399999999999999
  0
LINE
  5
BC
330
71
100
AcDbEntity
  8
AM_0
100
AcDbLine
 10
4.925813812770038
 20
-7.4
 30
0.0
 11
4.94346415384046
 21
-5.4
 31
0.0
  0
LINE
  5
BD
330
71
100
AcDbEntity
  8
AM_0
100
AcDbLine
 10
4.94346415384046
 20
-5.4
 30
0.0
 11
5.687539444620101
 21
-3.926647735342927
 31
0.0
  0
LINE
  5
BE
330
71
100
AcDbEntity
  8
AM_0
100
AcDbLine
 10
-5.687539444620111
 20
-3.926647735342927
 30
0.0
 11
-4.943464153840472
 21
-5.4
 31
0.0
  0
LINE
  5
BF
330
71
100
AcDbEntity
  8
AM_0
100
AcDbLine
 10
4.94346415384046
 20
-5.4
 30
0.0
 11
-4.943464153840472
 21
-5.4
 31
0.0
  0
LINE
  5
C1
330
71
100
AcDbEntity
  8
AM_4
100
AcDbLine
 10
-14.78665582369708
 20
-6.908726203218642
 30
0.0
 11
-14.92129989137926
 21
-6.908726203218642
 31
0.0
  0
LINE
  5
C2
330
71
100
AcDbEntity
  8
AM_0
100
AcDbLine
 10
-14.83918050437797
 20
-3.926647735342927
 30
0.0
 11
-14.78665582369708
 21
-6.908726203218642
 31
0.0
  0
LINE
  5
C3
330
71
100
AcDbEntity
  8
AM_0
100
AcDbLine
 10
-9.151641059757862
 20
-3.926647735342927
 30
0.0
 11
-14.83918050437797
 21
-3.926647735342927
 31
0.0
  0
LINE
  5
C4
330
71
100
AcDbEntity
  8
AM_0
100
AcDbLine
 10
-9.12537871941742
 20
-6.908726203218642
 30
0.0
 11
-9.151641059757862
 21
-3.926647735342927
 31
0.0
  0
LINE
  5
C5
330
71
100
AcDbEntity
  8
AM_4
100
AcDbLine
 10
-5.661277104279669
 20
-6.908726203218642
 30
0.0
 11
-9.12537871941742
 21
-6.908726203218642
 31
0.0
  0
LINE
  5
C6
330
71
100
AcDbEntity
  8
AM_0
100
AcDbLine
 10
-5.687539444620111
 20
-3.926647735342927
 30
0.0
 11
-5.661277104279669
 21
-6.908726203218642
 31
0.0
  0
LINE
  5
C7
330
71
100
AcDbEntity
  8
AM_0
100
AcDbLine
 10
5.687539444620101
 20
-3.926647735342927
 30
0.0
 11
-5.687539444620111
 21
-3.926647735342927
 31
0.0
  0
LINE
  5
C8
330
71
100
AcDbEntity
  8
AM_0
100
AcDbLine
 10
5.661277104279658
 20
-6.908726203218642
 30
0.0
 11
5.687539444620101
 21
-3.926647735342927
 31
0.0
  0
LINE
  5
C9
330
71
100
AcDbEntity
  8
AM_4
100
AcDbLine
 10
9.12537871941741
 20
-6.908726203218642
 30
0.0
 11
5.661277104279658
 21
-6.908726203218642
 31
0.0
  0
LINE
  5
CA
330
71
100
AcDbEntity
  8
AM_0
100
AcDbLine
 10
9.151641059757853
 20
-3.926647735342927
 30
0.0
 11
9.12537871941741
 21
-6.908726203218642
 31
0.0
  0
LINE
  5
CB
330
71
100
AcDbEntity
  8
AM_0
100
AcDbLine
 10
14.83918050437797
 20
-3.926647735342927
 30
0.0
 11
9.151641059757853
 21
-3.926647735342927
 31
0.0
  0
LINE
  5
CC
330
71
100
AcDbEntity
  8
AM_0
100
AcDbLine
 10
14.78665582369708
 20
-6.908726203218642
 30
0.0
 11
14.83918050437797
 21
-3.926647735342927
 31
0.0
  0
LINE
  5
CD
330
71
100
AcDbEntity
  8
AM_0
100
AcDbLine
 10
14.92129989137926
 20
-6.908726203218642
 30
0.0
 11
15.0
 21
-2.4
 31
0.0
  0
LINE
  5
CE
330
71
100
AcDbEntity
  8
AM_0
100
AcDbLine
 10
-15.0
 20
-2.4
 30
0.0
 11
-14.92129989137926
 21
-6.908726203218642
 31
0.0
  0
LINE
  5
CF
330
71
100
AcDbEntity
  8
AM_4
100
AcDbLine
 10
14.92129989137926
 20
-6.908726203218642
 30
0.0
 11
14.78665582369708
 21
-6.908726203218642
 31
0.0
  0
LINE
  5
D0
330
71
100
AcDbEntity
  8
AM_0
100
AcDbLine
 10
15.0
 20
-2.4
 30
0.0
 11
-15.0
 21
-2.4
 31
0.0
  0
ENDBLK
  5
74
330
71
100
AcDbEntity
  8
0
100
AcDbBlockEnd
  0
BLOCK
  5
D3
330
D1
100
AcDbEntity
  8
0
100
AcDbBlockBegin
  2
2_ECX_4151_button_0_in_ECX_4151_0
 70
     2
 10
0.0
 20
0.0
 30
0.0
  3
2_ECX_4151_button_0_in_ECX_4151_0
  1

  0
ATTDEF
  5
D5
330
D1
100
AcDbEntity
  8
AM_6
100
AcDbText
 10
19.75
 20
12.0
 30
0.0
 40
0.5
  1
ECX 4151_button
100
AcDbAttributeDefinition
  3

  2
NB
 70
     8
280
     0
  0
ATTDEF
  5
D6
330
D1
100
AcDbEntity
  8
AM_6
100
AcDbText
 10
19.75
 20
11.5
 30
0.0
 40
0.5
  1
ECX 4000 - plastic flush n
100
AcDbAttributeDefinition
  3

  2
NN
 70
     8
280
     0
  0
ATTDEF
  5
D7
330
D1
100
AcDbEntity
  8
AM_6
100
AcDbText
 10
19.75
 20
11.0
 30
0.0
 40
0.5
  1

100
AcDbAttributeDefinition
  3

  2
NT
 70
     8
280
     0
  0
ATTDEF
  5
D8
330
D1
100
AcDbEntity
  8
AM_6
100
AcDbText
 10
19.75
 20
10.5
 30
0.0
 40
0.5
  1
$CODE._button
100
AcDbAttributeDefinition
  3

  2
NBSYN
 70
     8
280
     0
  0
ATTDEF
  5
D9
330
D1
100
AcDbEntity
  8
AM_6
100
AcDbText
 10
19.75
 20
10.0
 30
0.0
 40
0.5
  1
ECX 4151_button
100
AcDbAttributeDefinition
  3

  2
LINA
 70
     8
280
     0
  0
ATTDEF
  5
DA
330
D1
100
AcDbEntity
  8
AM_6
100
AcDbText
 10
19.75
 20
9.5
 30
0.0
 40
0.5
  1
Comepi
100
AcDbAttributeDefinition
  3

  2
CATALOG
 70
     8
280
     0
  0
ATTDEF
  5
DB
330
D1
100
AcDbEntity
  8
AM_6
100
AcDbText
 10
19.75
 20
9.0
 30
0.0
 40
0.5
  1
ECX 4151
100
AcDbAttributeDefinition
  3

  2
CODE
 70
     8
280
     0
  0
ATTDEF
  5
DC
330
D1
100
AcDbEntity
  8
AM_6
100
AcDbText
 10
19.75
 20
8.5
 30
0.0
 40
0.5
  1
1
100
AcDbAttributeDefinition
  3

  2
VR
 70
     8
280
     0
  0
ATTDEF
  5
DD
330
D1
100
AcDbEntity
  8
AM_6
100
AcDbText
 10
19.75
 20
8.0
 30
0.0
 40
0.5
  1
0
100
AcDbAttributeDefinition
  3

  2
VERS
 70
     8
280
     0
  0
ATTDEF
  5
DE
330
D1
100
AcDbEntity
  8
AM_6
100
AcDbText
 10
19.75
 20
7.5
 30
0.0
 40
0.5
  1
Pulsante doppio
100
AcDbAttributeDefinition
  3

  2
DSCR
 70
     8
280
     0
  0
ATTDEF
  5
DF
330
D1
100
AcDbEntity
  8
AM_6
100
AcDbText
 10
19.75
 20
7.0
 30
0.0
 40
0.5
  1
Plastica
100
AcDbAttributeDefinition
  3

  2
MAT
 70
     8
280
     0
  0
ATTDEF
  5
E0
330
D1
100
AcDbEntity
  8
AM_6
100
AcDbText
 10
19.75
 20
6.5
 30
0.0
 40
0.5
  1
Verde/Rosso
100
AcDbAttributeDefinition
  3

  2
COL
 70
     8
280
     0
  0
ATTDEF
  5
E1
330
D1
100
AcDbEntity
  8
AM_6
100
AcDbText
 10
19.75
 20
6.0
 30
0.0
 40
0.5
  1
Verde
100
AcDbAttributeDefinition
  3

  2
COLX1
 70
     8
280
     0
  0
ATTDEF
  5
E2
330
D1
100
AcDbEntity
  8
AM_6
100
AcDbText
 10
19.75
 20
5.5
 30
0.0
 40
0.5
  1
Rosso
100
AcDbAttributeDefinition
  3

  2
COLX2
 70
     8
280
     0
  0
ATTDEF
  5
E3
330
D1
100
AcDbEntity
  8
AM_6
100
AcDbText
 10
19.75
 20
5.0
 30
0.0
 40
0.5
  1
Si
100
AcDbAttributeDefinition
  3

  2
LUM
 70
     8
280
     0
  0
ATTDEF
  5
E4
330
D1
100
AcDbEntity
  8
AM_6
100
AcDbText
 10
19.75
 20
4.5
 30
0.0
 40
0.5
  1
Impulso
100
AcDbAttributeDefinition
  3

  2
FUNZ
 70
     8
280
     0
  0
ATTDEF
  5
E5
330
D1
100
AcDbEntity
  8
AM_6
100
AcDbText
 10
19.75
 20
4.0
 30
0.0
 40
0.5
  1
55x29.5
100
AcDbAttributeDefinition
  3

  2
DEST
 70
     8
280
     0
  0
ATTDEF
  5
E6
330
D1
100
AcDbEntity
  8
AM_6
100
AcDbText
 10
19.75
 20
3.5
 30
0.0
 40
0.5
  1
65
100
AcDbAttributeDefinition
  3

  2
IP
 70
     8
280
     0
  0
ATTDEF
  5
E7
330
D1
100
AcDbEntity
  8
AM_6
100
AcDbText
 10
19.75
 20
3.0
 30
0.0
 40
0.5
  1
comepi
100
AcDbAttributeDefinition
  3

  2
COMPANY
 70
     8
280
     0
  0
ATTDEF
  5
E8
330
D1
100
AcDbEntity
  8
AM_6
100
AcDbText
 10
19.75
 20
2.5
 30
0.0
 40
0.5
  1
1
100
AcDbAttributeDefinition
  3

  2
ExcludeFromBOM
 70
     8
280
     0
  0
ATTDEF
  5
E9
330
D1
100
AcDbEntity
  8
AM_6
100
AcDbText
 10
19.75
 20
2.0
 30
0.0
 40
0.5
  1
{$CADENAS_DATA/23d-libs/comepi/control_units/pushbottons/4000_series/plastic_flush30_n.prj},191 {VTYP=3D},{NB=ECX 4151_button},{LINA=ECX 4151_button},{NN=ECX 4000 - plastic flush n},{DATE=24.09.2024 15:54:23},{GEOMDATE=19.09.2024 10:35:00},{VERSION=
100
AcDbAttributeDefinition
  3

  2
PSOL_0
 70
     9
280
     0
  0
ATTDEF
  5
EA
330
D1
100
AcDbEntity
  8
AM_6
100
AcDbText
 10
19.75
 20
1.5
 30
0.0
 40
0.5
  1
EID=550},{WBVAR=},{WBNUMERIC=}  {NB=ECX 4151_button},{LINA=ECX 4151_button},{KT=DUMMY},{CODE=ECX 4151},{VR=1},{VERS=0},{DSCR=Pulsante doppio},{MAT=Plastica},{COL=Verde/Rosso},{COLX1=Verde},{COLX2=Rosso},{LUM=Si},{FUNZ=Impulso},{DEST=55x29.5},{IP=65}
100
AcDbAttributeDefinition
  3

  2
PSOL_1
 70
     9
280
     0
  0
ATTDEF
  5
EB
330
D1
100
AcDbEntity
  8
AM_6
100
AcDbText
 10
19.75
 20
1.0
 30
0.0
 40
0.5
  1
,{G=1},{B=0},{R1=1},{G1=0},{B1=0}
100
AcDbAttributeDefinition
  3

  2
PSOL_2
 70
     9
280
     0
  0
LINE
  5
EC
330
D1
100
AcDbEntity
  8
AM_9
100
AcDbLine
 10
1.321577000512528
 20
-2.5
 30
0.0
 11
1.321577000512528
 21
-1.0
 31
0.0
  0
LINE
  5
ED
330
D1
100
AcDbEntity
  8
AM_9
100
AcDbLine
 10
-1.32157677459612
 20
-2.5
 30
0.0
 11
-1.32157677459612
 21
-1.0
 31
0.0
  0
LINE
  5
EE
330
D1
100
AcDbEntity
  8
AM_9
100
AcDbLine
 10
4.634563412786813
 20
-15.40000000000001
 30
0.0
 11
4.634563412786813
 21
-14.74810674748105
 31
0.0
  0
LINE
  5
EF
330
D1
100
AcDbEntity
  8
AM_9
100
AcDbLine
 10
-4.634563412786814
 20
-15.40000000000001
 30
0.0
 11
-4.634563412786812
 21
-14.74810674748105
 31
0.0
  0
ELLIPSE
  5
F0
330
D1
100
AcDbEntity
  8
AM_9
100
AcDbEllipse
 10
4.882401028443885
 20
-14.74810674748104
 30
0.0
 11
-9.184850993606095E-17
 21
-0.5000000000000515
 31
0.0
210
0.0
220
0.0
230
1.0
 40
0.495675231314094
 41
4.136430327226627
 42
4.712388980384712
  0
LINE
  5
F1
330
D1
100
AcDbEntity
  8
AM_9
100
AcDbLine
 10
4.634563412786813
 20
-14.74810674748105
 30
0.0
 11
4.93196855157527
 21
-14.74810674748105
 31
0.0
  0
ELLIPSE
  5
F2
330
D1
100
AcDbEntity
  8
AM_9
100
AcDbEllipse
 10
-4.882401028443883
 20
-14.74810674748104
 30
0.0
 11
-1.868205349336428E-15
 21
-0.5000000000000338
 31
0.0
210
0.0
220
0.0
230
1.0
 40
0.4956752313141098
 41
1.570796326794867
 42
2.146754979952972
  0
LINE
  5
F3
330
D1
100
AcDbEntity
  8
AM_9
100
AcDbLine
 10
-4.931968551575271
 20
-14.74810674748105
 30
0.0
 11
-4.634563412786812
 21
-14.74810674748105
 31
0.0
  0
LINE
  5
F4
330
D1
100
AcDbEntity
  8
AM_9
100
AcDbLine
 10
4.485860843392585
 20
-12.0
 30
0.0
 11
4.931968551575271
 21
-11.1
 31
0.0
  0
LINE
  5
F5
330
D1
100
AcDbEntity
  8
AM_9
100
AcDbLine
 10
-4.485860843392585
 20
-12.0
 30
0.0
 11
-4.93196855157527
 21
-11.1
 31
0.0
  0
LINE
  5
F6
330
D1
100
AcDbEntity
  8
AM_9
100
AcDbLine
 10
-4.674546914562519
 20
-14.47578722997353
 30
0.0
 11
-4.931968551575271
 21
-13.67608102171125
 31
0.0
  0
LINE
  5
F7
330
D1
100
AcDbEntity
  8
AM_9
100
AcDbLine
 10
-4.93196855157527
 20
-14.47578722997353
 30
0.0
 11
-4.674546914562519
 21
-14.47578722997353
 31
0.0
  0
LINE
  5
F8
330
D1
100
AcDbEntity
  8
AM_9
100
AcDbLine
 10
4.674546914562519
 20
-14.47578722997353
 30
0.0
 11
4.93196855157527
 21
-13.67608102171125
 31
0.0
  0
LINE
  5
F9
330
D1
100
AcDbEntity
  8
AM_9
100
AcDbLine
 10
4.674546914562519
 20
-14.47578722997353
 30
0.0
 11
4.931968551575269
 21
-14.47578722997353
 31
0.0
  0
LINE
  5
FA
330
D1
100
AcDbEntity
  8
AM_9
100
AcDbLine
 10
-4.931968551575271
 20
-13.1
 30
0.0
 11
-4.485860843392585
 21
-13.1
 31
0.0
  0
LINE
  5
FB
330
D1
100
AcDbEntity
  8
AM_9
100
AcDbLine
 10
4.931968551575271
 20
-13.1
 30
0.0
 11
4.485860843392585
 21
-13.1
 31
0.0
  0
LINE
  5
FC
330
D1
100
AcDbEntity
  8
AM_9
100
AcDbLine
 10
4.485860843392585
 20
-13.1
 30
0.0
 11
4.485860843392585
 21
-12.0
 31
0.0
  0
LINE
  5
FD
330
D1
100
AcDbEntity
  8
AM_9
100
AcDbLine
 10
-4.485860843392585
 20
-13.1
 30
0.0
 11
-4.485860843392585
 21
-12.0
 31
0.0
  0
LINE
  5
FE
330
D1
100
AcDbEntity
  8
AM_9
100
AcDbLine
 10
-4.485860843392585
 20
-12.0
 30
0.0
 11
-4.955484987040396
 21
-12.0
 31
0.0
  0
LINE
  5
FF
330
D1
100
AcDbEntity
  8
AM_9
100
AcDbLine
 10
4.955484987040396
 20
-12.0
 30
0.0
 11
4.485860843392585
 21
-12.0
 31
0.0
  0
LINE
  5
100
330
D1
100
AcDbEntity
  8
AM_9
100
AcDbLine
 10
-9.050000000000002
 20
-11.1
 30
0.0
 11
-9.050000000000002
 21
-17.4
 31
0.0
  0
LINE
  5
101
330
D1
100
AcDbEntity
  8
AM_9
100
AcDbLine
 10
9.050000000000002
 20
-17.4
 30
0.0
 11
9.050000000000002
 21
-11.1
 31
0.0
  0
LINE
  5
102
330
D1
100
AcDbEntity
  8
AM_9
100
AcDbLine
 10
-8.461642919358734
 20
-11.1
 30
0.0
 11
-9.050000000000002
 21
-11.1
 31
0.0
  0
LINE
  5
103
330
D1
100
AcDbEntity
  8
AM_9
100
AcDbLine
 10
9.050000000000002
 20
-11.1
 30
0.0
 11
8.461642919358734
 21
-11.1
 31
0.0
  0
LINE
  5
104
330
D1
100
AcDbEntity
  8
AM_9
100
AcDbLine
 10
5.452427544455074
 20
-11.1
 30
0.0
 11
-5.452427544455073
 21
-11.1
 31
0.0
  0
LINE
  5
105
330
D1
100
AcDbEntity
  8
AM_9
100
AcDbLine
 10
1.5
 20
-1.000000000000001
 30
0.0
 11
1.5
 21
-2.5
 31
0.0
  0
LINE
  5
106
330
D1
100
AcDbEntity
  8
AM_9
100
AcDbLine
 10
-1.5
 20
-2.5
 30
0.0
 11
-1.5
 21
-1.000000000000001
 31
0.0
  0
LINE
  5
107
330
D1
100
AcDbEntity
  8
AM_9
100
AcDbLine
 10
-1.5
 20
-2.5
 30
0.0
 11
1.5
 21
-2.5
 31
0.0
  0
LINE
  5
108
330
D1
100
AcDbEntity
  8
AM_9
100
AcDbLine
 10
-11.0
 20
-2.399999999999999
 30
0.0
 11
-11.0
 21
-7.4
 31
0.0
  0
LINE
  5
109
330
D1
100
AcDbEntity
  8
AM_9
100
AcDbLine
 10
11.0
 20
-7.4
 30
0.0
 11
11.0
 21
-2.399999999999999
 31
0.0
  0
LINE
  5
10A
330
D1
100
AcDbEntity
  8
AM_9
100
AcDbLine
 10
13.185
 20
11.8
 30
0.0
 11
13.185
 21
11.9
 31
0.0
  0
LINE
  5
10B
330
D1
100
AcDbEntity
  8
AM_9
100
AcDbLine
 10
13.185
 20
11.9
 30
0.0
 11
-13.185
 21
11.9
 31
0.0
  0
LINE
  5
10C
330
D1
100
AcDbEntity
  8
AM_9
100
AcDbLine
 10
-13.185
 20
11.8
 30
0.0
 11
-13.185
 21
11.9
 31
0.0
  0
LINE
  5
10D
330
D1
100
AcDbEntity
  8
AM_9
100
AcDbLine
 10
13.525
 20
11.8
 30
0.0
 11
-13.525
 21
11.8
 31
0.0
  0
LINE
  5
10E
330
D1
100
AcDbEntity
  8
AM_9
100
AcDbLine
 10
13.525
 20
11.8
 30
0.0
 11
13.525
 21
12.0
 31
0.0
  0
LINE
  5
10F
330
D1
100
AcDbEntity
  8
AM_9
100
AcDbLine
 10
-13.525
 20
11.8
 30
0.0
 11
-13.525
 21
12.0
 31
0.0
  0
LINE
  5
110
330
D1
100
AcDbEntity
  8
AM_5
  6
Dashed
100
AcDbLine
 10
9.466500000000002
 20
-7.4
 30
0.0
 11
9.466500000000002
 21
-2.400000000000001
 31
0.0
  0
LINE
  5
111
330
D1
100
AcDbEntity
  8
AM_5
  6
Dashed
100
AcDbLine
 10
-9.466500000000002
 20
-7.4
 30
0.0
 11
-9.466500000000002
 21
-2.400000000000001
 31
0.0
  0
LINE
  5
114
330
D1
100
AcDbEntity
  8
AM_7
100
AcDbLine
 10
0.0
 20
0.87
 30
0.0
 11
0.0
 21
-18.27
 31
0.0
  0
LINE
  5
115
330
D1
100
AcDbEntity
  8
AM_0
100
AcDbLine
 10
9.651544407901717
 20
-17.4
 30
0.0
 11
7.406922437828009
 21
-17.4
 31
0.0
  0
LWPOLYLINE
  5
116
330
D1
100
AcDbEntity
  8
AM_0
100
AcDbPolyline
 90
        7
 70
     0
 43
0.0
 10
8.013008356399695
 20
-16.90000000000001
 10
7.966149256408948
 20
-17.03403112190677
 10
7.948667838850382
 20
-17.16488995321523
 10
7.962435985654364
 20
-17.2666321776401
 10
8.000950433956724
 20
-17.34054251495039
 10
8.065599588002975
 20
-17.38803748927608
 10
8.130947635896996
 20
-17.4
  0
LINE
  5
117
330
D1
100
AcDbEntity
  8
AM_0
100
AcDbLine
 10
9.651544407901717
 20
-17.4
 30
0.0
 11
9.950000000000001
 21
-16.58
 31
0.0
  0
LINE
  5
118
330
D1
100
AcDbEntity
  8
AM_0
100
AcDbLine
 10
-7.406922437828009
 20
-17.4
 30
0.0
 11
-9.651544407901717
 21
-17.4
 31
0.0
  0
LINE
  5
119
330
D1
100
AcDbEntity
  8
AM_4
100
AcDbLine
 10
-7.02940253506655
 20
-16.90000000000001
 30
0.0
 11
-8.013008356399697
 21
-16.90000000000001
 31
0.0
  0
LINE
  5
11A
330
D1
100
AcDbEntity
  8
AM_4
100
AcDbLine
 10
8.013008356399695
 20
-16.90000000000001
 30
0.0
 11
7.02940253506655
 21
-16.90000000000001
 31
0.0
  0
LINE
  5
11B
330
D1
100
AcDbEntity
  8
AM_0
100
AcDbLine
 10
8.013008356399695
 20
-16.90000000000001
 30
0.0
 11
8.155519603311612
 21
-16.58
 31
0.0
  0
LWPOLYLINE
  5
11C
330
D1
100
AcDbEntity
  8
AM_0
100
AcDbPolyline
 90
        7
 70
     0
 43
0.0
 10
-8.130947635896998
 20
-17.4
 10
-8.032921170782087
 20
-17.37034560177354
 10
-7.974886073665142
 20
-17.29902182426255
 10
-7.949013800324922
 20
-17.18378844556649
 10
-7.959962664621716
 20
-17.06134806557794
 10
-7.996890932185259
 20
-16.93843038986535
 10
-8.013008356399697
 20
-16.90000000000001
  0
LINE
  5
11D
330
D1
100
AcDbEntity
  8
AM_0
100
AcDbLine
 10
-8.155519603311612
 20
-16.58
 30
0.0
 11
-8.013008356399697
 21
-16.90000000000001
 31
0.0
  0
LINE
  5
11E
330
D1
100
AcDbEntity
  8
AM_0
100
AcDbLine
 10
-9.950000000000001
 20
-16.58
 30
0.0
 11
-9.651544407901717
 21
-17.4
 31
0.0
  0
ARC
  5
11F
330
D1
100
AcDbEntity
  8
AM_0
100
AcDbCircle
 10
-13.43002305479962
 20
-12.57408190734227
 30
0.0
 40
3.480254914475355
100
AcDbArc
 50
359.3386259880162
 51
23.97359649770724
  0
ARC
  5
120
330
D1
100
AcDbEntity
  8
AM_0
100
AcDbCircle
 10
13.43002305479966
 20
-12.57408190734228
 30
0.0
 40
3.480254914475396
100
AcDbArc
 50
156.0264035022929
 51
180.6613740119836
  0
LINE
  5
121
330
D1
100
AcDbEntity
  8
AM_0
100
AcDbLine
 10
-11.0
 20
-11.16
 30
0.0
 11
-7.88471272031155
 21
-11.16
 31
0.0
  0
ELLIPSE
  5
122
330
D1
100
AcDbEntity
  8
AM_0
100
AcDbEllipse
 10
-10.33091449895185
 20
-12.57408190734228
 30
0.0
 11
1.953239984013870E-14
 21
3.480254914475404
 31
0.0
210
0.0
220
0.0
230
1.0
 40
0.7692402653962511
 41
4.700845826288457
 42
5.130807172814262
  0
ELLIPSE
  5
123
330
D1
100
AcDbEntity
  8
AM_0
100
AcDbEllipse
 10
10.33091449895186
 20
-12.57408190734229
 30
0.0
 11
-1.215124508830808E-14
 21
3.480254914475433
 31
0.0
210
0.0
220
0.0
230
1.0
 40
0.7692402653962483
 41
1.152378134365325
 42
1.582339480891128
  0
LINE
  5
124
330
D1
100
AcDbEntity
  8
AM_0
100
AcDbLine
 10
11.0
 20
-11.16
 30
0.0
 11
7.88471272031155
 21
-11.16
 31
0.0
  0
LINE
  5
125
330
D1
100
AcDbEntity
  8
AM_0
100
AcDbLine
 10
7.192396481454925
 20
-15.40000000000001
 30
0.0
 11
7.192396481454925
 21
-14.74810674748105
 31
0.0
  0
LINE
  5
126
330
D1
100
AcDbEntity
  8
AM_0
100
AcDbLine
 10
-7.192396481454925
 20
-15.40000000000001
 30
0.0
 11
-7.192396481454925
 21
-14.74810674748105
 31
0.0
  0
LINE
  5
127
330
D1
100
AcDbEntity
  8
AM_4
100
AcDbLine
 10
4.93196855157527
 20
-14.74810674748105
 30
0.0
 11
7.192396481454925
 21
-14.74810674748105
 31
0.0
  0
ELLIPSE
  5
128
330
D1
100
AcDbEntity
  8
AM_0
100
AcDbEllipse
 10
7.577016614153075
 20
-14.74810674748104
 30
0.0
 11
2.128597539314390E-15
 21
-0.5000000000000302
 31
0.0
210
0.0
220
0.0
230
1.0
 40
0.769240265396254
 41
4.136430327226609
 42
4.712388980384718
  0
ELLIPSE
  5
129
330
D1
100
AcDbEntity
  8
AM_0
100
AcDbEllipse
 10
-7.577016614153046
 20
-14.74810674748103
 30
0.0
 11
-9.800269296361768E-16
 21
-0.5
 31
0.0
210
0.0
220
0.0
230
1.0
 40
0.7692402653962401
 41
1.570796326794852
 42
2.146754979952997
  0
LINE
  5
12A
330
D1
100
AcDbEntity
  8
AM_4
100
AcDbLine
 10
-7.192396481454925
 20
-14.74810674748105
 30
0.0
 11
-4.931968551575271
 21
-14.74810674748105
 31
0.0
  0
LINE
  5
12B
330
D1
100
AcDbEntity
  8
AM_0
100
AcDbLine
 10
6.961624401836053
 20
-12.0
 30
0.0
 11
7.653940640692674
 21
-11.1
 31
0.0
  0
LINE
  5
12C
330
D1
100
AcDbEntity
  8
AM_0
100
AcDbLine
 10
-6.961624401836053
 20
-12.0
 30
0.0
 11
-7.653940640692673
 21
-11.1
 31
0.0
  0
LINE
  5
12D
330
D1
100
AcDbEntity
  8
AM_0
100
AcDbLine
 10
-7.254447029019863
 20
-14.47578722997353
 30
0.0
 11
-7.653940640692674
 21
-13.67608102171125
 31
0.0
  0
LINE
  5
12E
330
D1
100
AcDbEntity
  8
AM_4
100
AcDbLine
 10
-7.254447029019863
 20
-14.47578722997353
 30
0.0
 11
-4.93196855157527
 21
-14.47578722997353
 31
0.0
  0
LINE
  5
12F
330
D1
100
AcDbEntity
  8
AM_4
100
AcDbLine
 10
4.931968551575269
 20
-14.47578722997353
 30
0.0
 11
7.254447029019862
 21
-14.47578722997353
 31
0.0
  0
LINE
  5
130
330
D1
100
AcDbEntity
  8
AM_0
100
AcDbLine
 10
7.254447029019862
 20
-14.47578722997353
 30
0.0
 11
7.653940640692675
 21
-13.67608102171124
 31
0.0
  0
LWPOLYLINE
  5
131
330
D1
100
AcDbEntity
  8
AM_0
100
AcDbPolyline
 90
        7
 70
     0
 43
0.0
 10
7.406922437828009
 20
-17.4
 10
7.260449369226071
 20
-17.35710221154353
 10
7.191575053399503
 20
-17.30440088158811
 10
7.129136889254405
 20
-17.23099509857437
 10
7.064212879204759
 20
-17.10330504119433
 10
7.033603419327261
 20
-16.97181696538771
 10
7.02940253506655
 20
-16.90000000000001
  0
LINE
  5
132
330
D1
100
AcDbEntity
  8
AM_0
100
AcDbLine
 10
7.02940253506655
 20
-15.40000000000001
 30
0.0
 11
7.02940253506655
 21
-16.90000000000001
 31
0.0
  0
LINE
  5
133
330
D1
100
AcDbEntity
  8
AM_0
100
AcDbLine
 10
-7.02940253506655
 20
-16.90000000000001
 30
0.0
 11
-7.02940253506655
 21
-15.40000000000001
 31
0.0
  0
LWPOLYLINE
  5
134
330
D1
100
AcDbEntity
  8
AM_0
100
AcDbPolyline
 90
        6
 70
     0
 43
0.0
 10
-7.02940253506655
 20
-16.90000000000001
 10
-7.045431880366585
 20
-17.03939811724572
 10
-7.088968352033024
 20
-17.16218240480471
 10
-7.174600113913526
 20
-17.2873838332935
 10
-7.278401708589727
 20
-17.36708393523685
 10
-7.406922437828009
 20
-17.4
  0
LINE
  5
135
330
D1
100
AcDbEntity
  8
AM_0
100
AcDbLine
 10
-6.961624401836052
 20
-13.1
 30
0.0
 11
-6.961624401836053
 21
-12.0
 31
0.0
  0
LINE
  5
136
330
D1
100
AcDbEntity
  8
AM_0
100
AcDbLine
 10
-4.955484987040396
 20
-12.0
 30
0.0
 11
-6.961624401836053
 21
-12.0
 31
0.0
  0
LINE
  5
137
330
D1
100
AcDbEntity
  8
AM_0
100
AcDbLine
 10
6.961624401836053
 20
-13.1
 30
0.0
 11
6.961624401836053
 21
-12.0
 31
0.0
  0
LINE
  5
138
330
D1
100
AcDbEntity
  8
AM_0
100
AcDbLine
 10
6.961624401836053
 20
-12.0
 30
0.0
 11
4.955484987040396
 21
-12.0
 31
0.0
  0
LINE
  5
139
330
D1
100
AcDbEntity
  8
AM_0
100
AcDbLine
 10
-0.993020401042708
 20
-14.58
 30
0.0
 11
0.9930204010427078
 21
-14.58
 31
0.0
  0
LINE
  5
13A
330
D1
100
AcDbEntity
  8
AM_0
100
AcDbLine
 10
4.93196855157527
 20
-13.67608102171125
 30
0.0
 11
4.931968551575269
 21
-15.40000000000001
 31
0.0
  0
LINE
  5
13B
330
D1
100
AcDbEntity
  8
AM_0
100
AcDbLine
 10
4.93196855157527
 20
-13.67608102171125
 30
0.0
 11
7.653940640692675
 21
-13.67608102171124
 31
0.0
  0
LINE
  5
13C
330
D1
100
AcDbEntity
  8
AM_0
100
AcDbLine
 10
7.653940640692675
 20
-13.67608102171124
 30
0.0
 11
7.653940640692674
 21
-15.40000000000001
 31
0.0
  0
LINE
  5
13D
330
D1
100
AcDbEntity
  8
AM_0
100
AcDbLine
 10
8.155519603311612
 20
-16.58
 30
0.0
 11
8.155519603311612
 21
-15.40000000000001
 31
0.0
  0
LINE
  5
13E
330
D1
100
AcDbEntity
  8
AM_0
100
AcDbLine
 10
7.653940640692677
 20
-12.61425413397964
 30
0.0
 11
7.653940640692674
 21
-13.1
 31
0.0
  0
LINE
  5
13F
330
D1
100
AcDbEntity
  8
AM_0
100
AcDbLine
 10
7.653940640692674
 20
-13.1
 30
0.0
 11
4.931968551575271
 21
-13.1
 31
0.0
  0
LINE
  5
140
330
D1
100
AcDbEntity
  8
AM_0
100
AcDbLine
 10
4.931968551575274
 20
-12.61425413397964
 30
0.0
 11
4.931968551575271
 21
-13.1
 31
0.0
  0
LINE
  5
141
330
D1
100
AcDbEntity
  8
AM_0
100
AcDbLine
 10
9.950000000000001
 20
-16.58
 30
0.0
 11
9.950000000000001
 21
-12.61425413397964
 31
0.0
  0
LINE
  5
142
330
D1
100
AcDbEntity
  8
AM_0
100
AcDbLine
 10
9.950000000000001
 20
-16.58
 30
0.0
 11
8.155519603311612
 21
-16.58
 31
0.0
  0
LINE
  5
143
330
D1
100
AcDbEntity
  8
AM_0
100
AcDbLine
 10
9.950000000000001
 20
-12.61425413397964
 30
0.0
 11
7.653940640692677
 21
-12.61425413397964
 31
0.0
  0
LINE
  5
144
330
D1
100
AcDbEntity
  8
AM_0
100
AcDbLine
 10
-8.155519603311612
 20
-16.58
 30
0.0
 11
-9.950000000000001
 21
-16.58
 31
0.0
  0
LINE
  5
145
330
D1
100
AcDbEntity
  8
AM_0
100
AcDbLine
 10
-8.155519603311612
 20
-15.40000000000001
 30
0.0
 11
-8.155519603311612
 21
-16.58
 31
0.0
  0
LINE
  5
146
330
D1
100
AcDbEntity
  8
AM_0
100
AcDbLine
 10
-7.653940640692674
 20
-13.67608102171125
 30
0.0
 11
-7.653940640692679
 21
-15.40000000000001
 31
0.0
  0
LINE
  5
147
330
D1
100
AcDbEntity
  8
AM_0
100
AcDbLine
 10
-7.653940640692674
 20
-13.67608102171125
 30
0.0
 11
-4.931968551575271
 21
-13.67608102171125
 31
0.0
  0
LINE
  5
148
330
D1
100
AcDbEntity
  8
AM_0
100
AcDbLine
 10
-4.931968551575271
 20
-13.67608102171125
 30
0.0
 11
-4.931968551575274
 21
-15.40000000000001
 31
0.0
  0
LINE
  5
149
330
D1
100
AcDbEntity
  8
AM_0
100
AcDbLine
 10
8.155519603311612
 20
-15.40000000000001
 30
0.0
 11
-8.155519603311612
 21
-15.40000000000001
 31
0.0
  0
LINE
  5
14A
330
D1
100
AcDbEntity
  8
AM_0
100
AcDbLine
 10
-4.931968551575274
 20
-12.61425413397964
 30
0.0
 11
-4.931968551575271
 21
-13.1
 31
0.0
  0
LINE
  5
14B
330
D1
100
AcDbEntity
  8
AM_0
100
AcDbLine
 10
-4.931968551575271
 20
-13.1
 30
0.0
 11
-7.653940640692674
 21
-13.1
 31
0.0
  0
LINE
  5
14C
330
D1
100
AcDbEntity
  8
AM_0
100
AcDbLine
 10
-7.653940640692678
 20
-12.61425413397964
 30
0.0
 11
-7.653940640692674
 21
-13.1
 31
0.0
  0
LINE
  5
14D
330
D1
100
AcDbEntity
  8
AM_0
100
AcDbLine
 10
-7.653940640692678
 20
-12.61425413397964
 30
0.0
 11
-9.950000000000001
 21
-12.61425413397964
 31
0.0
  0
LINE
  5
14E
330
D1
100
AcDbEntity
  8
AM_0
100
AcDbLine
 10
-9.950000000000001
 20
-12.61425413397964
 30
0.0
 11
-9.950000000000001
 21
-16.58
 31
0.0
  0
LINE
  5
14F
330
D1
100
AcDbEntity
  8
AM_0
100
AcDbLine
 10
-1.040058209513152
 20
-12.61425413397964
 30
0.0
 11
-1.040058209513152
 21
-15.40000000000001
 31
0.0
  0
LINE
  5
150
330
D1
100
AcDbEntity
  8
AM_0
100
AcDbLine
 10
-0.9779068266153215
 20
-15.40000000000001
 30
0.0
 11
-0.993020401042708
 21
-14.58
 31
0.0
  0
LINE
  5
151
330
D1
100
AcDbEntity
  8
AM_0
100
AcDbLine
 10
-0.993020401042708
 20
-14.58
 30
0.0
 11
-0.993020401042708
 21
-11.20000000000001
 31
0.0
  0
LINE
  5
152
330
D1
100
AcDbEntity
  8
AM_0
100
AcDbLine
 10
0.9930204010427078
 20
-14.58
 30
0.0
 11
0.9930204010427078
 21
-11.20000000000001
 31
0.0
  0
LINE
  5
153
330
D1
100
AcDbEntity
  8
AM_0
100
AcDbLine
 10
0.9779068266153208
 20
-15.40000000000001
 30
0.0
 11
0.9930204010427078
 21
-14.58
 31
0.0
  0
LINE
  5
154
330
D1
100
AcDbEntity
  8
AM_0
100
AcDbLine
 10
1.040058209513152
 20
-12.61425413397964
 30
0.0
 11
1.040058209513152
 21
-15.40000000000001
 31
0.0
  0
ELLIPSE
  5
155
330
D1
100
AcDbEntity
  8
AM_0
100
AcDbEllipse
 10
6.65692978424153
 20
-12.5740819073423
 30
0.0
 11
-1.446956057087750E-14
 21
3.480254914475465
 31
0.0
210
0.0
220
0.0
230
1.0
 40
0.4956752313141004
 41
1.152378134365328
 42
1.582339480891128
  0
ELLIPSE
  5
156
330
D1
100
AcDbEntity
  8
AM_0
100
AcDbEllipse
 10
-6.6569297842415
 20
-12.57408190734229
 30
0.0
 11
1.566854070252327E-14
 21
3.480254914475408
 31
0.0
210
0.0
220
0.0
230
1.0
 40
0.4956752313140995
 41
4.700845826288457
 42
5.130807172814262
  0
LINE
  5
157
330
D1
100
AcDbEntity
  8
AM_0
100
AcDbLine
 10
-1.040058209513152
 20
-12.61425413397964
 30
0.0
 11
-4.931968551575274
 21
-12.61425413397964
 31
0.0
  0
ELLIPSE
  5
158
330
D1
100
AcDbEntity
  8
AM_0
100
AcDbEllipse
 10
-1.403819671567376
 20
-12.5740819073423
 30
0.0
 11
9.858759795845654E-16
 21
3.480254914475468
 31
0.0
210
0.0
220
0.0
230
1.0
 40
0.1045284632676546
 41
4.700845826288457
 42
5.118263302877341
  0
LINE
  5
159
330
D1
100
AcDbEntity
  8
AM_0
100
AcDbLine
 10
-1.069588816250197
 20
-11.20000000000001
 30
0.0
 11
1.069588816250197
 21
-11.20000000000001
 31
0.0
  0
ELLIPSE
  5
15A
330
D1
100
AcDbEntity
  8
AM_0
100
AcDbEllipse
 10
1.403819671567382
 20
-12.5740819073423
 30
0.0
 11
-1.332439502984746E-15
 21
3.480254914475468
 31
0.0
210
0.0
220
0.0
230
1.0
 40
0.1045284632676559
 41
1.164922004302246
 42
1.582339480891128
  0
LINE
  5
15B
330
D1
100
AcDbEntity
  8
AM_0
100
AcDbLine
 10
4.931968551575274
 20
-12.61425413397964
 30
0.0
 11
1.040058209513152
 21
-12.61425413397964
 31
0.0
  0
LINE
  5
15C
330
D1
100
AcDbEntity
  8
AM_0
100
AcDbLine
 10
5.452427544455072
 20
-11.16
 30
0.0
 11
-5.452427544455073
 21
-11.16
 31
0.0
  0
LINE
  5
15D
330
D1
100
AcDbEntity
  8
AM_0
100
AcDbLine
 10
-8.461642919358734
 20
-11.1
 30
0.0
 11
-8.461642919358734
 21
-11.16
 31
0.0
  0
LINE
  5
15E
330
D1
100
AcDbEntity
  8
AM_0
100
AcDbLine
 10
-8.461642919358734
 20
-11.1
 30
0.0
 11
-5.452427544455073
 21
-11.1
 31
0.0
  0
LINE
  5
15F
330
D1
100
AcDbEntity
  8
AM_0
100
AcDbLine
 10
-5.452427544455073
 20
-11.1
 30
0.0
 11
-5.452427544455073
 21
-11.16
 31
0.0
  0
LINE
  5
160
330
D1
100
AcDbEntity
  8
AM_0
100
AcDbLine
 10
5.452427544455074
 20
-11.1
 30
0.0
 11
5.452427544455072
 21
-11.16
 31
0.0
  0
LINE
  5
161
330
D1
100
AcDbEntity
  8
AM_0
100
AcDbLine
 10
5.452427544455074
 20
-11.1
 30
0.0
 11
8.461642919358734
 21
-11.1
 31
0.0
  0
LINE
  5
162
330
D1
100
AcDbEntity
  8
AM_0
100
AcDbLine
 10
8.461642919358734
 20
-11.1
 30
0.0
 11
8.461642919358734
 21
-11.16
 31
0.0
  0
LINE
  5
163
330
D1
100
AcDbEntity
  8
AM_0
100
AcDbLine
 10
-11.0
 20
-7.4
 30
0.0
 11
-11.0
 21
-11.16
 31
0.0
  0
LINE
  5
164
330
D1
100
AcDbEntity
  8
AM_0
100
AcDbLine
 10
-11.0
 20
-1.000000000000001
 30
0.0
 11
-11.0
 21
-2.399999999999999
 31
0.0
  0
LINE
  5
165
330
D1
100
AcDbEntity
  8
AM_0
100
AcDbLine
 10
11.0
 20
-2.399999999999999
 30
0.0
 11
11.0
 21
-1.000000000000001
 31
0.0
  0
LINE
  5
166
330
D1
100
AcDbEntity
  8
AM_0
100
AcDbLine
 10
11.0
 20
-11.16
 30
0.0
 11
11.0
 21
-7.4
 31
0.0
  0
LINE
  5
167
330
D1
100
AcDbEntity
  8
AM_0
100
AcDbLine
 10
-14.5
 20
0.0
 30
0.0
 11
-14.5
 21
-1.0
 31
0.0
  0
LINE
  5
168
330
D1
100
AcDbEntity
  8
AM_0
100
AcDbLine
 10
14.5
 20
-1.0
 30
0.0
 11
14.5
 21
0.0
 31
0.0
  0
LINE
  5
169
330
D1
100
AcDbEntity
  8
AM_0
100
AcDbLine
 10
14.5
 20
-1.0
 30
0.0
 11
-14.5
 21
-1.0
 31
0.0
  0
LINE
  5
16A
330
D1
100
AcDbEntity
  8
AM_0
100
AcDbLine
 10
14.75
 20
12.0
 30
0.0
 11
-14.75
 21
12.0
 31
0.0
  0
LINE
  5
16B
330
D1
100
AcDbEntity
  8
AM_0
100
AcDbLine
 10
14.75
 20
0.0
 30
0.0
 11
-14.75
 21
0.0
 31
0.0
  0
LINE
  5
16C
330
D1
100
AcDbEntity
  8
AM_0
100
AcDbLine
 10
14.75
 20
12.0
 30
0.0
 11
14.75
 21
0.0
 31
0.0
  0
LINE
  5
16D
330
D1
100
AcDbEntity
  8
AM_0
100
AcDbLine
 10
-14.75
 20
12.0
 30
0.0
 11
-14.75
 21
0.0
 31
0.0
  0
LINE
  5
16E
330
D1
100
AcDbEntity
  8
AM_5
100
AcDbLine
 10
9.466500000000002
 20
-2.400000000000001
 30
0.0
 11
9.466500000000002
 21
-2.159999999999997
 31
0.0
  0
LINE
  5
16F
330
D1
100
AcDbEntity
  8
AM_5
100
AcDbLine
 10
9.466500000000002
 20
-11.16
 30
0.0
 11
9.466500000000002
 21
-7.400000000000001
 31
0.0
  0
LINE
  5
170
330
D1
100
AcDbEntity
  8
AM_5
100
AcDbLine
 10
-9.466500000000002
 20
-2.400000000000001
 30
0.0
 11
-9.466500000000002
 21
-2.159999999999997
 31
0.0
  0
LINE
  5
171
330
D1
100
AcDbEntity
  8
AM_5
100
AcDbLine
 10
-9.466500000000002
 20
-11.16
 30
0.0
 11
-9.466500000000002
 21
-7.400000000000001
 31
0.0
  0
ENDBLK
  5
D4
330
D1
100
AcDbEntity
  8
0
100
AcDbBlockEnd
  0
ENDSEC
  0
SECTION
  2
ENTITIES
  0
ATTDEF
  5
5F
330
1F
100
AcDbEntity
  8
AM_6
100
AcDbText
 10
20.0
 20
12.0
 30
0.0
 40
0.5
  1
ECX 4151
100
AcDbAttributeDefinition
  3

  2
NB
 70
     8
280
     0
  0
ATTDEF
  5
60
330
1F
100
AcDbEntity
  8
AM_6
100
AcDbText
 10
20.0
 20
11.5
 30
0.0
 40
0.5
  1
ECX 4X5X
100
AcDbAttributeDefinition
  3

  2
NN
 70
     8
280
     0
  0
ATTDEF
  5
61
330
1F
100
AcDbEntity
  8
AM_6
100
AcDbText
 10
20.0
 20
11.0
 30
0.0
 40
0.5
  1
Double button
100
AcDbAttributeDefinition
  3

  2
NT
 70
     8
280
     0
  0
ATTDEF
  5
62
330
1F
100
AcDbEntity
  8
AM_6
100
AcDbText
 10
20.0
 20
10.5
 30
0.0
 40
0.5
  1
$CODE.
100
AcDbAttributeDefinition
  3

  2
NBSYN
 70
     8
280
     0
  0
ATTDEF
  5
63
330
1F
100
AcDbEntity
  8
AM_6
100
AcDbText
 10
20.0
 20
10.0
 30
0.0
 40
0.5
  1
ECX 4151
100
AcDbAttributeDefinition
  3

  2
LINA
 70
     8
280
     0
  0
ATTDEF
  5
64
330
1F
100
AcDbEntity
  8
AM_6
100
AcDbText
 10
20.0
 20
9.5
 30
0.0
 40
0.5
  1
Comepi
100
AcDbAttributeDefinition
  3

  2
CATALOG
 70
     8
280
     0
  0
ATTDEF
  5
65
330
1F
100
AcDbEntity
  8
AM_6
100
AcDbText
 10
20.0
 20
9.0
 30
0.0
 40
0.5
  1
ECX 4151
100
AcDbAttributeDefinition
  3

  2
CODE
 70
     8
280
     0
  0
ATTDEF
  5
66
330
1F
100
AcDbEntity
  8
AM_6
100
AcDbText
 10
20.0
 20
8.5
 30
0.0
 40
0.5
  1
Double button
100
AcDbAttributeDefinition
  3

  2
DSCR
 70
     8
280
     0
  0
ATTDEF
  5
67
330
1F
100
AcDbEntity
  8
AM_6
100
AcDbText
 10
20.0
 20
8.0
 30
0.0
 40
0.5
  1
Plastic
100
AcDbAttributeDefinition
  3

  2
MAT
 70
     8
280
     0
  0
ATTDEF
  5
68
330
1F
100
AcDbEntity
  8
AM_6
100
AcDbText
 10
20.0
 20
7.5
 30
0.0
 40
0.5
  1
Green/Red
100
AcDbAttributeDefinition
  3

  2
COL
 70
     8
280
     0
  0
ATTDEF
  5
69
330
1F
100
AcDbEntity
  8
AM_6
100
AcDbText
 10
20.0
 20
7.0
 30
0.0
 40
0.5
  1
Yes
100
AcDbAttributeDefinition
  3

  2
LUM
 70
     8
280
     0
  0
ATTDEF
  5
6A
330
1F
100
AcDbEntity
  8
AM_6
100
AcDbText
 10
20.0
 20
6.5
 30
0.0
 40
0.5
  1
Momentary
100
AcDbAttributeDefinition
  3

  2
FUNZ
 70
     8
280
     0
  0
ATTDEF
  5
6B
330
1F
100
AcDbEntity
  8
AM_6
100
AcDbText
 10
20.0
 20
6.0
 30
0.0
 40
0.5
  1
55x29.5
100
AcDbAttributeDefinition
  3

  2
DEST
 70
     8
280
     0
  0
ATTDEF
  5
6C
330
1F
100
AcDbEntity
  8
AM_6
100
AcDbText
 10
20.0
 20
5.5
 30
0.0
 40
0.5
  1
65
100
AcDbAttributeDefinition
  3

  2
IP
 70
     8
280
     0
  0
ATTDEF
  5
6D
330
1F
100
AcDbEntity
  8
AM_6
100
AcDbText
 10
20.0
 20
5.0
 30
0.0
 40
0.5
  1
comepi
100
AcDbAttributeDefinition
  3

  2
COMPANY
 70
     8
280
     0
  0
ATTDEF
  5
6E
330
1F
100
AcDbEntity
  8
AM_6
100
AcDbText
 10
20.0
 20
4.5
 30
0.0
 40
0.5
  1
{$CADENAS_DATA/23d-libs/comepi/control_units/pushbottons/4000_series/illuminated_pushbuttons/double_button_asmtab.prj},173 {VTYP=3D},{STYP=ASSTAB},{NB=ECX 4151},{LINA=ECX 4151},{NN=ECX 4X5X},{DATE=11.02.2025 08:55:12},{GEOMDATE=19.09.2024 06:05:02},
100
AcDbAttributeDefinition
  3

  2
PSOL_0
 70
     9
280
     0
  0
ATTDEF
  5
6F
330
1F
100
AcDbEntity
  8
AM_6
100
AcDbText
 10
20.0
 20
4.0
 30
0.0
 40
0.5
  1
ON=},{LINEID=550},{WBVAR=},{WBNUMERIC=}  {NB=ECX 4151},{LINA=ECX 4151},{KT=DUMMY},{CODE=ECX 4151},{VR=1},{VERS=0},{DSCR=Pulsante doppio},{MAT=Plastica},{COL=Verde/Rosso},{COLX1=Verde},{COLX2=Rosso},{LUM=Si},{FUNZ=Impulso},{DEST=55x29.5},{IP=65},{R=0
100
AcDbAttributeDefinition
  3

  2
PSOL_1
 70
     9
280
     0
  0
ATTDEF
  5
70
330
1F
100
AcDbEntity
  8
AM_6
100
AcDbText
 10
20.0
 20
3.5
 30
0.0
 40
0.5
  1
},{B=0},{R1=1},{G1=0},{B1=0},{PPATH=../plastic_flush30_n_asmtpl.prj}
100
AcDbAttributeDefinition
  3

  2
PSOL_2
 70
     9
280
     0
  0
INSERT
  5
72
330
1F
100
AcDbEntity
  8
0
100
AcDbBlockReference
  2
1_PL2727PI_0_in_ECX_4151_0
 10
0.0
 20
0.0
 30
0.0
  0
INSERT
  5
D2
330
1F
100
AcDbEntity
  8
0
100
AcDbBlockReference
  2
2_ECX_4151_button_0_in_ECX_4151_0
 10
0.0
 20
0.0
 30
0.0
  0
POINT
  5
173
330
1F
100
AcDbEntity
  8
2d ConnectionPoints
100
AcDbPoint
 10
0.0
 20
0.0
 30
0.0
  0
ENDSEC
  0
SECTION
  2
OBJECTS
  0
DICTIONARY
  5
C
330
0
100
AcDbDictionary
281
     1
  3
ACAD_DETAILVIEWSTYLE
350
17B
  3
ACAD_GROUP
350
D
  3
ACAD_LAYOUT
350
1A
  3
ACAD_MATERIAL
350
43
  3
ACAD_MLEADERSTYLE
350
5B
  3
ACAD_MLINESTYLE
350
17
  3
ACAD_PLOTSETTINGS
350
19
  3
ACAD_PLOTSTYLENAME
350
E
  3
ACAD_SCALELIST
350
47
  3
ACAD_SECTIONVIEWSTYLE
350
17C
  3
ACAD_TABLESTYLE
350
59
  3
ACAD_VISUALSTYLE
350
2A
  3
ACDB_RECOMPOSE_DATA
350
178
  3
AcDbVariableDictionary
350
174
  0
SUN
  5
5D
330
29
100
AcDbSun
 90
        1
290
     0
 63
     7
421
 16777215
 40
1.0
291
     1
 91
  2455826
 92
 54000000
292
     0
 70
     2
 71
   256
280
     1
  0
DICTIONARY
  5
17B
102
{ACAD_REACTORS
330
C
102
}
330
C
100
AcDbDictionary
281
     1
  0
DICTIONARY
  5
D
102
{ACAD_REACTORS
330
C
102
}
330
C
100
AcDbDictionary
281
     1
  0
DICTIONARY
  5
1A
102
{ACAD_REACTORS
330
C
102
}
330
C
100
AcDbDictionary
281
     1
  3
Layout1
350
1E
  3
Layout2
350
26
  3
Model
350
22
  0
DICTIONARY
  5
43
102
{ACAD_REACTORS
330
C
102
}
330
C
100
AcDbDictionary
281
     1
  3
ByBlock
350
45
  3
ByLayer
350
44
  3
Global
350
46
  0
DICTIONARY
  5
5B
102
{ACAD_REACTORS
330
C
102
}
330
C
100
AcDbDictionary
281
     1
  3
Standard
350
5C
  0
DICTIONARY
  5
17
102
{ACAD_REACTORS
330
C
102
}
330
C
100
AcDbDictionary
281
     1
  3
Standard
350
18
  0
DICTIONARY
  5
19
102
{ACAD_REACTORS
330
C
102
}
330
C
100
AcDbDictionary
281
     1
  0
ACDBDICTIONARYWDFLT
  5
E
102
{ACAD_REACTORS
330
C
102
}
330
C
100
AcDbDictionary
281
     1
  3
Normal
350
F
100
AcDbDictionaryWithDefault
340
F
  0
DICTIONARY
  5
47
102
{ACAD_REACTORS
330
C
102
}
330
C
100
AcDbDictionary
281
     1
  3
A0
350
48
  3
A1
350
49
  3
A2
350
4A
  3
A3
350
4B
  3
A4
350
4C
  3
A5
350
4D
  3
A6
350
4E
  3
A7
350
4F
  3
A8
350
50
  3
A9
350
51
  3
B0
350
52
  3
B1
350
53
  3
B2
350
54
  3
B3
350
55
  3
B4
350
56
  3
B5
350
57
  3
B6
350
58
  0
DICTIONARY
  5
17C
102
{ACAD_REACTORS
330
C
102
}
330
C
100
AcDbDictionary
281
     1
  0
DICTIONARY
  5
59
102
{ACAD_REACTORS
330
C
102
}
330
C
100
AcDbDictionary
281
     1
  3
Standard
350
5A
  0
DICTIONARY
  5
2A
102
{ACAD_REACTORS
330
C
102
}
330
C
100
AcDbDictionary
281
     1
  3
2dWireframe
350
2F
  3
Basic
350
32
  3
Brighten
350
36
  3
ColorChange
350
3A
  3
Conceptual
350
34
  3
Dim
350
35
  3
EdgeColorOff
350
3D
  3
Facepattern
350
39
  3
Flat
350
2B
  3
FlatWithEdges
350
2C
  3
Gouraud
350
2D
  3
GouraudWithEdges
350
2E
  3
Hidden
350
31
  3
JitterOff
350
3B
  3
Linepattern
350
38
  3
OverhangOff
350
3C
  3
Realistic
350
33
  3
Shaded
350
42
  3
Shaded with edges
350
41
  3
Shades of Gray
350
3E
  3
Sketchy
350
3F
  3
Thicken
350
37
  3
Wireframe
350
30
  3
X-Ray
350
40
  0
XRECORD
  5
178
102
{ACAD_REACTORS
330
C
102
}
330
C
100
AcDbXrecord
280
     1
 90
        1
330
5A
  0
DICTIONARY
  5
174
102
{ACAD_REACTORS
330
C
102
}
330
C
100
AcDbDictionary
281
     1
  3
CANNOSCALE
350
175
  3
CENTEREXE
350
17D
  3
CENTERLTYPEFILE
350
17E
  3
CMLEADERSTYLE
350
17A
  3
CTABLESTYLE
350
179
  0
LAYOUT
  5
1E
102
{ACAD_REACTORS
330
1A
102
}
330
1A
100
AcDbPlotSettings
  1

  2
none_device
  4

  6

 40
0.0
 41
0.0
 42
0.0
 43
0.0
 44
0.0
 45
0.0
 46
0.0
 47
0.0
 48
0.0
 49
0.0
140
0.0
141
0.0
142
1.0
143
1.0
 70
   688
 72
     1
 73
     0
 74
     5
  7

 75
    16
 76
     0
 77
     2
 78
   300
147
1.0
148
0.0
149
0.0
100
AcDbLayout
  1
Layout1
 70
     1
 71
     1
 10
0.0
 20
0.0
 11
420.0
 21
297.0
 12
0.0
 22
0.0
 32
0.0
 14
1.000000000000000E+20
 24
1.000000000000000E+20
 34
1.000000000000000E+20
 15
-1.000000000000000E+20
 25
-1.000000000000000E+20
 35
-1.000000000000000E+20
146
0.0
 13
0.0
 23
0.0
 33
0.0
 16
1.0
 26
0.0
 36
0.0
 17
0.0
 27
1.0
 37
0.0
 76
     0
330
1B
  0
LAYOUT
  5
26
102
{ACAD_REACTORS
330
1A
102
}
330
1A
100
AcDbPlotSettings
  1

  2
none_device
  4

  6

 40
0.0
 41
0.0
 42
0.0
 43
0.0
 44
0.0
 45
0.0
 46
0.0
 47
0.0
 48
0.0
 49
0.0
140
0.0
141
0.0
142
1.0
143
1.0
 70
   688
 72
     1
 73
     0
 74
     5
  7

 75
    16
 76
     0
 77
     2
 78
   300
147
1.0
148
0.0
149
0.0
100
AcDbLayout
  1
Layout2
 70
     1
 71
     2
 10
0.0
 20
0.0
 11
0.0
 21
0.0
 12
0.0
 22
0.0
 32
0.0
 14
0.0
 24
0.0
 34
0.0
 15
0.0
 25
0.0
 35
0.0
146
0.0
 13
0.0
 23
0.0
 33
0.0
 16
1.0
 26
0.0
 36
0.0
 17
0.0
 27
1.0
 37
0.0
 76
     0
330
23
  0
LAYOUT
  5
22
102
{ACAD_REACTORS
330
1A
102
}
330
1A
100
AcDbPlotSettings
  1

  2
none_device
  4
Letter_(8.50_x_11.00_Inches)
  6

 40
6.35
 41
6.35
 42
6.35000508
 43
6.35000508
 44
215.9
 45
279.4
 46
0.0
 47
0.0
 48
0.0
 49
0.0
140
0.0
141
0.0
142
1.0
143
1.0
 70
  1712
 72
     1
 73
     0
 74
     0
  7

 75
     0
 76
     0
 77
     2
 78
   300
147
1.0
148
0.0
149
0.0
100
AcDbLayout
  1
Model
 70
     1
 71
     0
 10
0.0
 20
0.0
 11
420.0
 21
297.0
 12
0.0
 22
0.0
 32
0.0
 14
-15.0
 24
-18.27
 34
0.0
 15
23.42237288135593
 25
12.50542372881356
 35
0.0
146
0.0
 13
0.0
 23
0.0
 33
0.0
 16
1.0
 26
0.0
 36
0.0
 17
0.0
 27
1.0
 37
0.0
 76
     0
330
1F
331
29
  0
MATERIAL
  5
45
102
{ACAD_REACTORS
330
43
102
}
330
43
100
AcDbMaterial
  1
ByBlock
 72
     1
 94
      127
  0
MATERIAL
  5
44
102
{ACAD_REACTORS
330
43
102
}
330
43
100
AcDbMaterial
  1
ByLayer
 72
     1
 94
      127
  0
MATERIAL
  5
46
102
{ACAD_REACTORS
330
43
102
}
330
43
100
AcDbMaterial
  1
Global
 72
     1
 94
      127
  0
MLEADERSTYLE
  5
5C
102
{ACAD_REACTORS
330
5B
102
}
330
5B
100
AcDbMLeaderStyle
179
     2
170
     2
171
     1
172
     0
 90
        2
 40
0.0
 41
0.0
173
     1
 91
-1056964608
340
14
 92
       -2
290
     1
 42
2.0
291
     1
 43
8.0
  3
Standard
341
0
 44
4.0
300

342
11
174
     1
178
     6
175
     1
176
     0
 93
-1056964608
 45
4.0
292
     0
297
     0
 46
4.0
343
0
 94
-1056964608
 47
1.0
 49
1.0
140
1.0
293
     1
141
0.0
294
     1
177
     0
142
1.0
295
     0
296
     0
143
3.75
271
     0
272
     9
273
     9
298
     0
  0
MLINESTYLE
  5
18
102
{ACAD_REACTORS
330
17
102
}
330
17
100
AcDbMlineStyle
  2
Standard
 70
     0
  3

 62
   256
 51
90.0
 52
90.0
 71
     2
 49
0.5
 62
   256
  6
BYLAYER
 49
-0.5
 62
   256
  6
BYLAYER
  0
ACDBPLACEHOLDER
  5
F
102
{ACAD_REACTORS
330
E
102
}
330
E
  0
SCALE
  5
48
102
{ACAD_REACTORS
330
47
102
}
330
47
100
AcDbScale
 70
     0
300
1:1
140
1.0
141
1.0
290
     1
  0
SCALE
  5
49
102
{ACAD_REACTORS
330
47
102
}
330
47
100
AcDbScale
 70
     0
300
1:2
140
1.0
141
2.0
290
     0
  0
SCALE
  5
4A
102
{ACAD_REACTORS
330
47
102
}
330
47
100
AcDbScale
 70
     0
300
1:4
140
1.0
141
4.0
290
     0
  0
SCALE
  5
4B
102
{ACAD_REACTORS
330
47
102
}
330
47
100
AcDbScale
 70
     0
300
1:5
140
1.0
141
5.0
290
     0
  0
SCALE
  5
4C
102
{ACAD_REACTORS
330
47
102
}
330
47
100
AcDbScale
 70
     0
300
1:8
140
1.0
141
8.0
290
     0
  0
SCALE
  5
4D
102
{ACAD_REACTORS
330
47
102
}
330
47
100
AcDbScale
 70
     0
300
1:10
140
1.0
141
10.0
290
     0
  0
SCALE
  5
4E
102
{ACAD_REACTORS
330
47
102
}
330
47
100
AcDbScale
 70
     0
300
1:16
140
1.0
141
16.0
290
     0
  0
SCALE
  5
4F
102
{ACAD_REACTORS
330
47
102
}
330
47
100
AcDbScale
 70
     0
300
1:20
140
1.0
141
20.0
290
     0
  0
SCALE
  5
50
102
{ACAD_REACTORS
330
47
102
}
330
47
100
AcDbScale
 70
     0
300
1:30
140
1.0
141
30.0
290
     0
  0
SCALE
  5
51
102
{ACAD_REACTORS
330
47
102
}
330
47
100
AcDbScale
 70
     0
300
1:40
140
1.0
141
40.0
290
     0
  0
SCALE
  5
52
102
{ACAD_REACTORS
330
47
102
}
330
47
100
AcDbScale
 70
     0
300
1:50
140
1.0
141
50.0
290
     0
  0
SCALE
  5
53
102
{ACAD_REACTORS
330
47
102
}
330
47
100
AcDbScale
 70
     0
300
1:100
140
1.0
141
100.0
290
     0
  0
SCALE
  5
54
102
{ACAD_REACTORS
330
47
102
}
330
47
100
AcDbScale
 70
     0
300
2:1
140
2.0
141
1.0
290
     0
  0
SCALE
  5
55
102
{ACAD_REACTORS
330
47
102
}
330
47
100
AcDbScale
 70
     0
300
4:1
140
4.0
141
1.0
290
     0
  0
SCALE
  5
56
102
{ACAD_REACTORS
330
47
102
}
330
47
100
AcDbScale
 70
     0
300
8:1
140
8.0
141
1.0
290
     0
  0
SCALE
  5
57
102
{ACAD_REACTORS
330
47
102
}
330
47
100
AcDbScale
 70
     0
300
10:1
140
10.0
141
1.0
290
     0
  0
SCALE
  5
58
102
{ACAD_REACTORS
330
47
102
}
330
47
100
AcDbScale
 70
     0
300
100:1
140
100.0
141
1.0
290
     0
  0
TABLESTYLE
  5
5A
102
{ACAD_REACTORS
330
59
102
}
102
{ACAD_XDICTIONARY
360
176
102
}
330
59
100
AcDbTableStyle
  3
Standard
 70
     0
 71
     0
 40
0.06
 41
0.06
280
     0
281
     0
  7
Standard
140
4.5
170
     2
 62
     0
 63
   257
283
     0
 90
        4
 91
        0
  1

274
    -2
284
     1
 64
     0
275
    -2
285
     1
 65
     0
276
    -2
286
     1
 66
     0
277
    -2
287
     1
 67
     0
278
    -2
288
     1
 68
     0
279
    -2
289
     1
 69
     0
  7
Standard
140
6.0
170
     5
 62
     0
 63
   257
283
     0
 90
        4
 91
        0
  1

274
    -2
284
     1
 64
     0
275
    -2
285
     1
 65
     0
276
    -2
286
     1
 66
     0
277
    -2
287
     1
 67
     0
278
    -2
288
     1
 68
     0
279
    -2
289
     1
 69
     0
  7
Standard
140
4.5
170
     5
 62
     0
 63
   257
283
     0
 90
        4
 91
        0
  1

274
    -2
284
     1
 64
     0
275
    -2
285
     1
 65
     0
276
    -2
286
     1
 66
     0
277
    -2
287
     1
 67
     0
278
    -2
288
     1
 68
     0
279
    -2
289
     1
 69
     0
  0
VISUALSTYLE
  5
2F
102
{ACAD_REACTORS
330
2A
102
}
330
2A
100
AcDbVisualStyle
  2
2dWireframe
 70
     4
177
     3
291
     0
 70
    58
 90
        0
176
     1
 90
        2
176
     1
 90
        0
176
     1
 90
        0
176
     1
 40
0.6
176
     1
 40
30.0
176
     1
 62
     7
420
 16777215
176
     1
 90
        1
176
     1
 90
        4
176
     1
 62
     7
176
     1
 62
   257
176
     1
 90
        1
176
     1
 90
        1
176
     1
 40
1.0
176
     1
 90
        0
176
     1
 62
   257
176
     1
 40
1.0
176
     1
 90
        1
176
     1
 90
        6
176
     1
 90
        2
176
     1
 62
     7
176
     1
 90
        5
176
     1
 90
        0
176
     1
 90
        0
176
     1
290
     0
176
     1
 90
        1
176
     1
 40
0.0
176
     1
 90
        0
176
     1
290
     1
176
     1
290
     1
176
     1
290
     0
176
     1
290
     0
176
     1
290
     0
176
     1
290
     0
176
     1
290
     0
176
     1
290
     0
176
     1
290
     0
176
     1
 90
       50
176
     1
 40
0.0
176
     1
 40
1.0
176
     1
 90
        0
176
     1
 62
    18
420
        0
176
     1
 90
       50
176
     1
 90
        3
176
     1
 62
     5
420
      255
176
     1
290
     0
176
     1
 90
       50
176
     1
 90
       50
176
     1
 90
       50
176
     1
290
     0
176
     1
 90
       50
176
     1
 62
   256
176
     0
 40
1.0
176
     0
 90
        2
176
     1
  1
strokes_ogs.tif
176
     1
290
     0
176
     1
 40
1.0
176
     1
 40
1.0
176
     1
  0
VISUALSTYLE
  5
32
102
{ACAD_REACTORS
330
2A
102
}
330
2A
100
AcDbVisualStyle
  2
Basic
 70
     7
177
     3
291
     1
 70
    58
 90
        1
176
     1
 90
        0
176
     1
 90
        1
176
     1
 90
        0
176
     1
 40
0.6
176
     1
 40
30.0
176
     1
 62
     7
420
 16777215
176
     1
 90
        0
176
     1
 90
        4
176
     1
 62
     7
176
     1
 62
   257
176
     1
 90
        1
176
     1
 90
        1
176
     1
 40
1.0
176
     1
 90
        8
176
     1
 62
     7
176
     1
 40
1.0
176
     1
 90
        1
176
     1
 90
        6
176
     1
 90
        2
176
     1
 62
     7
176
     1
 90
        5
176
     1
 90
        0
176
     1
 90
        0
176
     1
290
     0
176
     1
 90
        1
176
     1
 40
0.0
176
     1
 90
        0
176
     1
290
     0
176
     1
290
     1
176
     1
290
     1
176
     1
290
     0
176
     1
290
     0
176
     1
290
     0
176
     1
290
     0
176
     1
290
     0
176
     1
290
     0
176
     1
 90
       50
176
     1
 40
0.0
176
     1
 40
1.0
176
     1
 90
        0
176
     1
 62
    18
420
        0
176
     1
 90
       50
176
     1
 90
        3
176
     1
 62
     5
420
      255
176
     1
290
     0
176
     1
 90
       50
176
     1
 90
       50
176
     1
 90
       50
176
     1
290
     0
176
     1
 90
       50
176
     1
 62
   256
176
     0
 40
1.0
176
     0
 90
        2
176
     1
  1
strokes_ogs.tif
176
     1
290
     0
176
     1
 40
1.0
176
     1
 40
1.0
176
     1
  0
VISUALSTYLE
  5
36
102
{ACAD_REACTORS
330
2A
102
}
330
2A
100
AcDbVisualStyle
  2
Brighten
 70
    12
177
     3
291
     1
 70
    58
 90
        2
176
     1
 90
        2
176
     1
 90
        0
176
     1
 90
        0
176
     1
 40
0.6
176
     1
 40
30.0
176
     1
 62
     7
420
 16777215
176
     1
 90
        1
176
     1
 90
        4
176
     1
 62
     7
176
     1
 62
   257
176
     1
 90
        1
176
     1
 90
        1
176
     1
 40
1.0
176
     1
 90
        8
176
     1
 62
     7
176
     1
 40
1.0
176
     1
 90
        1
176
     1
 90
        6
176
     1
 90
        2
176
     1
 62
     7
176
     1
 90
        5
176
     1
 90
        0
176
     1
 90
        0
176
     1
290
     0
176
     1
 90
        1
176
     1
 40
50.0
176
     1
 90
        0
176
     1
290
     0
176
     1
290
     1
176
     1
290
     1
176
     1
290
     0
176
     1
290
     0
176
     1
290
     0
176
     1
290
     0
176
     1
290
     0
176
     1
290
     0
176
     1
 90
       50
176
     1
 40
0.0
176
     1
 40
1.0
176
     1
 90
        0
176
     1
 62
    18
420
        0
176
     1
 90
       50
176
     1
 90
        3
176
     1
 62
     5
420
      255
176
     1
290
     0
176
     1
 90
       50
176
     1
 90
       50
176
     1
 90
       50
176
     1
290
     0
176
     1
 90
       50
176
     1
 62
   256
176
     0
 40
1.0
176
     0
 90
        2
176
     1
  1
strokes_ogs.tif
176
     1
290
     0
176
     1
 40
1.0
176
     1
 40
1.0
176
     1
  0
VISUALSTYLE
  5
3A
102
{ACAD_REACTORS
330
2A
102
}
330
2A
100
AcDbVisualStyle
  2
ColorChange
 70
    16
177
     3
291
     1
 70
    58
 90
        2
176
     1
 90
        2
176
     1
 90
        3
176
     1
 90
        0
176
     1
 40
0.6
176
     1
 40
30.0
176
     1
 62
     8
420
  8421504
176
     1
 90
        1
176
     1
 90
        4
176
     1
 62
     7
176
     1
 62
   257
176
     1
 90
        1
176
     1
 90
        1
176
     1
 40
1.0
176
     1
 90
        8
176
     1
 62
     8
420
  8421504
176
     1
 40
1.0
176
     1
 90
        1
176
     1
 90
        6
176
     1
 90
        2
176
     1
 62
     7
176
     1
 90
        5
176
     1
 90
        0
176
     1
 90
        0
176
     1
290
     0
176
     1
 90
        1
176
     1
 40
0.0
176
     1
 90
        0
176
     1
290
     0
176
     1
290
     1
176
     1
290
     1
176
     1
290
     0
176
     1
290
     0
176
     1
290
     0
176
     1
290
     0
176
     1
290
     0
176
     1
290
     0
176
     1
 90
       50
176
     1
 40
0.0
176
     1
 40
1.0
176
     1
 90
        0
176
     1
 62
    18
420
        0
176
     1
 90
       50
176
     1
 90
        3
176
     1
 62
     5
420
      255
176
     1
290
     0
176
     1
 90
       50
176
     1
 90
       50
176
     1
 90
       50
176
     1
290
     0
176
     1
 90
       50
176
     1
 62
   256
176
     0
 40
1.0
176
     0
 90
        2
176
     1
  1
strokes_ogs.tif
176
     1
290
     0
176
     1
 40
1.0
176
     1
 40
1.0
176
     1
  0
VISUALSTYLE
  5
34
102
{ACAD_REACTORS
330
2A
102
}
330
2A
100
AcDbVisualStyle
  2
Conceptual
 70
     9
177
     3
291
     0
 70
    58
 90
        3
176
     1
 90
        2
176
     1
 90
        0
176
     1
 90
        0
176
     1
 40
0.6
176
     1
 40
30.0
176
     1
 62
     7
420
 16777215
176
     1
 90
        2
176
     1
 90
        2
176
     1
 62
     7
176
     1
 62
   257
176
     1
 90
        1
176
     1
 90
        1
176
     1
 40
179.0
176
     1
 90
        8
176
     1
 62
     7
176
     1
 40
1.0
176
     1
 90
        1
176
     1
 90
        6
176
     1
 90
        2
176
     1
 62
     7
176
     1
 90
        3
176
     1
 90
        0
176
     1
 90
        0
176
     1
290
     0
176
     1
 90
        1
176
     1
 40
0.0
176
     1
 90
        0
176
     1
290
     0
176
     1
290
     1
176
     1
290
     1
176
     1
290
     0
176
     1
290
     0
176
     1
290
     0
176
     1
290
     0
176
     1
290
     0
176
     1
290
     0
176
     1
 90
       50
176
     1
 40
0.0
176
     1
 40
1.0
176
     1
 90
        0
176
     1
 62
    18
420
        0
176
     1
 90
       50
176
     1
 90
        3
176
     1
 62
     5
420
      255
176
     1
290
     0
176
     1
 90
       50
176
     1
 90
       50
176
     1
 90
       50
176
     1
290
     0
176
     1
 90
       50
176
     1
 62
   256
176
     0
 40
1.0
176
     0
 90
        2
176
     1
  1
strokes_ogs.tif
176
     1
290
     0
176
     1
 40
1.0
176
     1
 40
1.0
176
     1
  0
VISUALSTYLE
  5
35
102
{ACAD_REACTORS
330
2A
102
}
330
2A
100
AcDbVisualStyle
  2
Dim
 70
    11
177
     3
291
     1
 70
    58
 90
        2
176
     1
 90
        2
176
     1
 90
        0
176
     1
 90
        0
176
     1
 40
0.6
176
     1
 40
30.0
176
     1
 62
     7
420
 16777215
176
     1
 90
        1
176
     1
 90
        4
176
     1
 62
     7
176
     1
 62
   257
176
     1
 90
        1
176
     1
 90
        1
176
     1
 40
1.0
176
     1
 90
        8
176
     1
 62
     7
176
     1
 40
1.0
176
     1
 90
        1
176
     1
 90
        6
176
     1
 90
        2
176
     1
 62
     7
176
     1
 90
        5
176
     1
 90
        0
176
     1
 90
        0
176
     1
290
     0
176
     1
 90
        1
176
     1
 40
-50.0
176
     1
 90
        0
176
     1
290
     0
176
     1
290
     1
176
     1
290
     1
176
     1
290
     0
176
     1
290
     0
176
     1
290
     0
176
     1
290
     0
176
     1
290
     0
176
     1
290
     0
176
     1
 90
       50
176
     1
 40
0.0
176
     1
 40
1.0
176
     1
 90
        0
176
     1
 62
    18
420
        0
176
     1
 90
       50
176
     1
 90
        3
176
     1
 62
     5
420
      255
176
     1
290
     0
176
     1
 90
       50
176
     1
 90
       50
176
     1
 90
       50
176
     1
290
     0
176
     1
 90
       50
176
     1
 62
   256
176
     0
 40
1.0
176
     0
 90
        2
176
     1
  1
strokes_ogs.tif
176
     1
290
     0
176
     1
 40
1.0
176
     1
 40
1.0
176
     1
  0
VISUALSTYLE
  5
3D
102
{ACAD_REACTORS
330
2A
102
}
330
2A
100
AcDbVisualStyle
  2
EdgeColorOff
 70
    22
177
     3
291
     1
 70
    58
 90
        2
176
     0
 90
        2
176
     0
 90
        0
176
     0
 90
        0
176
     0
 40
0.6
176
     0
 40
30.0
176
     0
 62
     7
420
 16777215
176
     0
 90
        1
176
     0
 90
        4
176
     0
 62
     7
176
     0
 62
   257
176
     0
 90
        1
176
     0
 90
        1
176
     0
 40
1.0
176
     0
 90
        8
176
     2
 62
     7
176
     0
 40
1.0
176
     0
 90
        1
176
     0
 90
        6
176
     0
 90
        2
176
     0
 62
     7
176
     0
 90
        5
176
     0
 90
        0
176
     0
 90
        0
176
     0
290
     0
176
     0
 90
        1
176
     0
 40
0.0
176
     0
 90
        0
176
     0
290
     0
176
     0
290
     1
176
     0
290
     1
176
     0
290
     0
176
     0
290
     0
176
     0
290
     0
176
     0
290
     0
176
     0
290
     0
176
     0
290
     0
176
     0
 90
       50
176
     0
 40
0.0
176
     0
 40
1.0
176
     0
 90
        0
176
     0
 62
    18
420
        0
176
     0
 90
       50
176
     0
 90
        3
176
     0
 62
     5
420
      255
176
     0
290
     0
176
     0
 90
       50
176
     0
 90
       50
176
     0
 90
       50
176
     0
290
     0
176
     0
 90
       50
176
     0
 62
   256
176
     0
 40
1.0
176
     0
 90
        2
176
     0
  1
strokes_ogs.tif
176
     0
290
     0
176
     0
 40
1.0
176
     0
 40
1.0
176
     0
  0
VISUALSTYLE
  5
39
102
{ACAD_REACTORS
330
2A
102
}
330
2A
100
AcDbVisualStyle
  2
Facepattern
 70
    15
177
     3
291
     1
 70
    58
 90
        2
176
     1
 90
        2
176
     1
 90
        0
176
     1
 90
        0
176
     1
 40
0.6
176
     1
 40
30.0
176
     1
 62
     7
420
 16777215
176
     1
 90
        1
176
     1
 90
        4
176
     1
 62
     7
176
     1
 62
   257
176
     1
 90
        1
176
     1
 90
        1
176
     1
 40
1.0
176
     1
 90
        8
176
     1
 62
     7
176
     1
 40
1.0
176
     1
 90
        1
176
     1
 90
        6
176
     1
 90
        2
176
     1
 62
     7
176
     1
 90
        5
176
     1
 90
        0
176
     1
 90
        0
176
     1
290
     0
176
     1
 90
        1
176
     1
 40
0.0
176
     1
 90
        0
176
     1
290
     0
176
     1
290
     1
176
     1
290
     1
176
     1
290
     0
176
     1
290
     0
176
     1
290
     0
176
     1
290
     0
176
     1
290
     0
176
     1
290
     0
176
     1
 90
       50
176
     1
 40
0.0
176
     1
 40
1.0
176
     1
 90
        0
176
     1
 62
    18
420
        0
176
     1
 90
       50
176
     1
 90
        3
176
     1
 62
     5
420
      255
176
     1
290
     0
176
     1
 90
       50
176
     1
 90
       50
176
     1
 90
       50
176
     1
290
     0
176
     1
 90
       50
176
     1
 62
   256
176
     0
 40
1.0
176
     0
 90
        2
176
     1
  1
strokes_ogs.tif
176
     1
290
     0
176
     1
 40
1.0
176
     1
 40
1.0
176
     1
  0
VISUALSTYLE
  5
2B
102
{ACAD_REACTORS
330
2A
102
}
330
2A
100
AcDbVisualStyle
  2
Flat
 70
     0
177
     3
291
     1
 70
    58
 90
        2
176
     1
 90
        1
176
     1
 90
        1
176
     1
 90
        2
176
     1
 40
0.6
176
     1
 40
30.0
176
     1
 62
     7
420
 16777215
176
     1
 90
        0
176
     1
 90
        0
176
     1
 62
     7
176
     1
 62
   257
176
     1
 90
        1
176
     1
 90
        1
176
     1
 40
1.0
176
     1
 90
        8
176
     1
 62
     7
176
     1
 40
1.0
176
     1
 90
        1
176
     1
 90
        6
176
     1
 90
        2
176
     1
 62
     7
176
     1
 90
        5
176
     1
 90
        0
176
     1
 90
        0
176
     1
290
     0
176
     1
 90
       13
176
     1
 40
0.0
176
     1
 90
        0
176
     1
290
     0
176
     1
290
     1
176
     1
290
     1
176
     1
290
     0
176
     1
290
     0
176
     1
290
     0
176
     1
290
     0
176
     1
290
     0
176
     1
290
     0
176
     1
 90
       50
176
     1
 40
0.0
176
     1
 40
1.0
176
     1
 90
        0
176
     1
 62
    18
420
        0
176
     1
 90
       50
176
     1
 90
        3
176
     1
 62
     5
420
      255
176
     1
290
     0
176
     1
 90
       50
176
     1
 90
       50
176
     1
 90
       50
176
     1
290
     0
176
     1
 90
       50
176
     1
 62
   256
176
     0
 40
1.0
176
     0
 90
        2
176
     1
  1
strokes_ogs.tif
176
     1
290
     0
176
     1
 40
1.0
176
     1
 40
1.0
176
     1
  0
VISUALSTYLE
  5
2C
102
{ACAD_REACTORS
330
2A
102
}
330
2A
100
AcDbVisualStyle
  2
FlatWithEdges
 70
     1
177
     3
291
     1
 70
    58
 90
        2
176
     1
 90
        1
176
     1
 90
        1
176
     1
 90
        2
176
     1
 40
0.6
176
     1
 40
30.0
176
     1
 62
     7
420
 16777215
176
     1
 90
        1
176
     1
 90
        0
176
     1
 62
     7
176
     1
 62
   257
176
     1
 90
        1
176
     1
 90
        1
176
     1
 40
1.0
176
     1
 90
        0
176
     1
 62
   257
176
     1
 40
1.0
176
     1
 90
        1
176
     1
 90
        6
176
     1
 90
        2
176
     1
 62
     7
176
     1
 90
        5
176
     1
 90
        0
176
     1
 90
        0
176
     1
290
     0
176
     1
 90
       13
176
     1
 40
0.0
176
     1
 90
        0
176
     1
290
     0
176
     1
290
     1
176
     1
290
     1
176
     1
290
     0
176
     1
290
     0
176
     1
290
     0
176
     1
290
     0
176
     1
290
     0
176
     1
290
     0
176
     1
 90
       50
176
     1
 40
0.0
176
     1
 40
1.0
176
     1
 90
        0
176
     1
 62
    18
420
        0
176
     1
 90
       50
176
     1
 90
        3
176
     1
 62
     5
420
      255
176
     1
290
     0
176
     1
 90
       50
176
     1
 90
       50
176
     1
 90
       50
176
     1
290
     0
176
     1
 90
       50
176
     1
 62
   256
176
     0
 40
1.0
176
     0
 90
        2
176
     1
  1
strokes_ogs.tif
176
     1
290
     0
176
     1
 40
1.0
176
     1
 40
1.0
176
     1
  0
VISUALSTYLE
  5
2D
102
{ACAD_REACTORS
330
2A
102
}
330
2A
100
AcDbVisualStyle
  2
Gouraud
 70
     2
177
     3
291
     1
 70
    58
 90
        2
176
     1
 90
        2
176
     1
 90
        1
176
     1
 90
        2
176
     1
 40
0.6
176
     1
 40
30.0
176
     1
 62
     7
420
 16777215
176
     1
 90
        0
176
     1
 90
        0
176
     1
 62
     7
176
     1
 62
   257
176
     1
 90
        1
176
     1
 90
        1
176
     1
 40
1.0
176
     1
 90
        0
176
     1
 62
     7
176
     1
 40
1.0
176
     1
 90
        1
176
     1
 90
        6
176
     1
 90
        2
176
     1
 62
     7
176
     1
 90
        5
176
     1
 90
        0
176
     1
 90
        0
176
     1
290
     0
176
     1
 90
       13
176
     1
 40
0.0
176
     1
 90
        0
176
     1
290
     0
176
     1
290
     1
176
     1
290
     1
176
     1
290
     0
176
     1
290
     0
176
     1
290
     0
176
     1
290
     0
176
     1
290
     0
176
     1
290
     0
176
     1
 90
       50
176
     1
 40
0.0
176
     1
 40
1.0
176
     1
 90
        0
176
     1
 62
    18
420
        0
176
     1
 90
       50
176
     1
 90
        3
176
     1
 62
     5
420
      255
176
     1
290
     0
176
     1
 90
       50
176
     1
 90
       50
176
     1
 90
       50
176
     1
290
     0
176
     1
 90
       50
176
     1
 62
   256
176
     0
 40
1.0
176
     0
 90
        2
176
     1
  1
strokes_ogs.tif
176
     1
290
     0
176
     1
 40
1.0
176
     1
 40
1.0
176
     1
  0
VISUALSTYLE
  5
2E
102
{ACAD_REACTORS
330
2A
102
}
330
2A
100
AcDbVisualStyle
  2
GouraudWithEdges
 70
     3
177
     3
291
     1
 70
    58
 90
        2
176
     1
 90
        2
176
     1
 90
        1
176
     1
 90
        2
176
     1
 40
0.6
176
     1
 40
30.0
176
     1
 62
     7
420
 16777215
176
     1
 90
        1
176
     1
 90
        0
176
     1
 62
     7
176
     1
 62
   257
176
     1
 90
        1
176
     1
 90
        1
176
     1
 40
1.0
176
     1
 90
        0
176
     1
 62
   257
176
     1
 40
1.0
176
     1
 90
        1
176
     1
 90
        6
176
     1
 90
        2
176
     1
 62
     7
176
     1
 90
        5
176
     1
 90
        0
176
     1
 90
        0
176
     1
290
     0
176
     1
 90
       13
176
     1
 40
0.0
176
     1
 90
        0
176
     1
290
     0
176
     1
290
     1
176
     1
290
     1
176
     1
290
     0
176
     1
290
     0
176
     1
290
     0
176
     1
290
     0
176
     1
290
     0
176
     1
290
     0
176
     1
 90
       50
176
     1
 40
0.0
176
     1
 40
1.0
176
     1
 90
        0
176
     1
 62
    18
420
        0
176
     1
 90
       50
176
     1
 90
        3
176
     1
 62
     5
420
      255
176
     1
290
     0
176
     1
 90
       50
176
     1
 90
       50
176
     1
 90
       50
176
     1
290
     0
176
     1
 90
       50
176
     1
 62
   256
176
     0
 40
1.0
176
     0
 90
        2
176
     1
  1
strokes_ogs.tif
176
     1
290
     0
176
     1
 40
1.0
176
     1
 40
1.0
176
     1
  0
VISUALSTYLE
  5
31
102
{ACAD_REACTORS
330
2A
102
}
330
2A
100
AcDbVisualStyle
  2
Hidden
 70
     6
177
     3
291
     0
 70
    58
 90
        1
176
     1
 90
        2
176
     1
 90
        2
176
     1
 90
        0
176
     1
 40
0.6
176
     1
 40
30.0
176
     1
 62
     7
420
 16777215
176
     1
 90
        2
176
     1
 90
        2
176
     1
 62
     7
176
     1
 62
   257
176
     1
 90
        2
176
     1
 90
        1
176
     1
 40
40.0
176
     1
 90
        0
176
     1
 62
   257
176
     1
 40
1.0
176
     1
 90
        1
176
     1
 90
        6
176
     1
 90
        2
176
     1
 62
     7
176
     1
 90
        3
176
     1
 90
        0
176
     1
 90
        0
176
     1
290
     0
176
     1
 90
        1
176
     1
 40
0.0
176
     1
 90
        0
176
     1
290
     0
176
     1
290
     1
176
     1
290
     1
176
     1
290
     0
176
     1
290
     0
176
     1
290
     0
176
     1
290
     0
176
     1
290
     0
176
     1
290
     0
176
     1
 90
       50
176
     1
 40
0.0
176
     1
 40
1.0
176
     1
 90
        0
176
     1
 62
    18
420
        0
176
     1
 90
       50
176
     1
 90
        3
176
     1
 62
     5
420
      255
176
     1
290
     0
176
     1
 90
       50
176
     1
 90
       50
176
     1
 90
       50
176
     1
290
     0
176
     1
 90
       50
176
     1
 62
   256
176
     0
 40
1.0
176
     0
 90
        2
176
     1
  1
strokes_ogs.tif
176
     1
290
     0
176
     1
 40
1.0
176
     1
 40
1.0
176
     1
  0
VISUALSTYLE
  5
3B
102
{ACAD_REACTORS
330
2A
102
}
330
2A
100
AcDbVisualStyle
  2
JitterOff
 70
    20
177
     3
291
     1
 70
    58
 90
        2
176
     0
 90
        2
176
     0
 90
        0
176
     0
 90
        0
176
     0
 40
0.6
176
     0
 40
30.0
176
     0
 62
     7
420
 16777215
176
     0
 90
        1
176
     0
 90
        4
176
     0
 62
     7
176
     0
 62
   257
176
     0
 90
        1
176
     0
 90
        1
176
     0
 40
1.0
176
     0
 90
       10
176
     2
 62
     7
176
     0
 40
1.0
176
     0
 90
        1
176
     0
 90
        6
176
     0
 90
        2
176
     0
 62
     7
176
     0
 90
        5
176
     0
 90
        0
176
     0
 90
        0
176
     0
290
     0
176
     0
 90
        1
176
     0
 40
0.0
176
     0
 90
        0
176
     0
290
     0
176
     0
290
     1
176
     0
290
     1
176
     0
290
     0
176
     0
290
     0
176
     0
290
     0
176
     0
290
     0
176
     0
290
     0
176
     0
290
     0
176
     0
 90
       50
176
     0
 40
0.0
176
     0
 40
1.0
176
     0
 90
        0
176
     0
 62
    18
420
        0
176
     0
 90
       50
176
     0
 90
        3
176
     0
 62
     5
420
      255
176
     0
290
     0
176
     0
 90
       50
176
     0
 90
       50
176
     0
 90
       50
176
     0
290
     0
176
     0
 90
       50
176
     0
 62
   256
176
     0
 40
1.0
176
     0
 90
        2
176
     0
  1
strokes_ogs.tif
176
     0
290
     0
176
     0
 40
1.0
176
     0
 40
1.0
176
     0
  0
VISUALSTYLE
  5
38
102
{ACAD_REACTORS
330
2A
102
}
330
2A
100
AcDbVisualStyle
  2
Linepattern
 70
    14
177
     3
291
     1
 70
    58
 90
        2
176
     1
 90
        2
176
     1
 90
        0
176
     1
 90
        0
176
     1
 40
0.6
176
     1
 40
30.0
176
     1
 62
     7
420
 16777215
176
     1
 90
        1
176
     1
 90
        4
176
     1
 62
     7
176
     1
 62
   257
176
     1
 90
        7
176
     1
 90
        7
176
     1
 40
1.0
176
     1
 90
        8
176
     1
 62
     7
176
     1
 40
1.0
176
     1
 90
        1
176
     1
 90
        6
176
     1
 90
        2
176
     1
 62
     7
176
     1
 90
        5
176
     1
 90
        0
176
     1
 90
        0
176
     1
290
     0
176
     1
 90
        1
176
     1
 40
0.0
176
     1
 90
        0
176
     1
290
     0
176
     1
290
     1
176
     1
290
     1
176
     1
290
     0
176
     1
290
     0
176
     1
290
     0
176
     1
290
     0
176
     1
290
     0
176
     1
290
     0
176
     1
 90
       50
176
     1
 40
0.0
176
     1
 40
1.0
176
     1
 90
        0
176
     1
 62
    18
420
        0
176
     1
 90
       50
176
     1
 90
        3
176
     1
 62
     5
420
      255
176
     1
290
     0
176
     1
 90
       50
176
     1
 90
       50
176
     1
 90
       50
176
     1
290
     0
176
     1
 90
       50
176
     1
 62
   256
176
     0
 40
1.0
176
     0
 90
        2
176
     1
  1
strokes_ogs.tif
176
     1
290
     0
176
     1
 40
1.0
176
     1
 40
1.0
176
     1
  0
VISUALSTYLE
  5
3C
102
{ACAD_REACTORS
330
2A
102
}
330
2A
100
AcDbVisualStyle
  2
OverhangOff
 70
    21
177
     3
291
     1
 70
    58
 90
        2
176
     0
 90
        2
176
     0
 90
        0
176
     0
 90
        0
176
     0
 40
0.6
176
     0
 40
30.0
176
     0
 62
     7
420
 16777215
176
     0
 90
        1
176
     0
 90
        4
176
     0
 62
     7
176
     0
 62
   257
176
     0
 90
        1
176
     0
 90
        1
176
     0
 40
1.0
176
     0
 90
        9
176
     2
 62
     7
176
     0
 40
1.0
176
     0
 90
        1
176
     0
 90
        6
176
     0
 90
        2
176
     0
 62
     7
176
     0
 90
        5
176
     0
 90
        0
176
     0
 90
        0
176
     0
290
     0
176
     0
 90
        1
176
     0
 40
0.0
176
     0
 90
        0
176
     0
290
     0
176
     0
290
     1
176
     0
290
     1
176
     0
290
     0
176
     0
290
     0
176
     0
290
     0
176
     0
290
     0
176
     0
290
     0
176
     0
290
     0
176
     0
 90
       50
176
     0
 40
0.0
176
     0
 40
1.0
176
     0
 90
        0
176
     0
 62
    18
420
        0
176
     0
 90
       50
176
     0
 90
        3
176
     0
 62
     5
420
      255
176
     0
290
     0
176
     0
 90
       50
176
     0
 90
       50
176
     0
 90
       50
176
     0
290
     0
176
     0
 90
       50
176
     0
 62
   256
176
     0
 40
1.0
176
     0
 90
        2
176
     0
  1
strokes_ogs.tif
176
     0
290
     0
176
     0
 40
1.0
176
     0
 40
1.0
176
     0
  0
VISUALSTYLE
  5
33
102
{ACAD_REACTORS
330
2A
102
}
330
2A
100
AcDbVisualStyle
  2
Realistic
 70
     8
177
     3
291
     0
 70
    58
 90
        2
176
     1
 90
        3
176
     1
 90
        0
176
     1
 90
        2
176
     1
 40
0.6
176
     1
 40
30.0
176
     1
 62
     7
420
 16777215
176
     1
 90
        0
176
     1
 90
        0
176
     1
 62
     7
176
     1
 62
   257
176
     1
 90
        1
176
     1
 90
        1
176
     1
 40
1.0
176
     1
 90
        8
176
     1
 62
   257
176
     1
 40
1.0
176
     1
 90
        1
176
     1
 90
        6
176
     1
 90
        2
176
     1
 62
     7
176
     1
 90
        3
176
     1
 90
        0
176
     1
 90
        0
176
     1
290
     0
176
     1
 90
       13
176
     1
 40
0.0
176
     1
 90
        0
176
     1
290
     0
176
     1
290
     1
176
     1
290
     1
176
     1
290
     0
176
     1
290
     0
176
     1
290
     0
176
     1
290
     0
176
     1
290
     0
176
     1
290
     0
176
     1
 90
       50
176
     1
 40
0.0
176
     1
 40
1.0
176
     1
 90
        0
176
     1
 62
    18
420
        0
176
     1
 90
       50
176
     1
 90
        3
176
     1
 62
     5
420
      255
176
     1
290
     0
176
     1
 90
       50
176
     1
 90
       50
176
     1
 90
       50
176
     1
290
     0
176
     1
 90
       50
176
     1
 62
   256
176
     0
 40
1.0
176
     0
 90
        2
176
     1
  1
strokes_ogs.tif
176
     1
290
     0
176
     1
 40
1.0
176
     1
 40
1.0
176
     1
  0
VISUALSTYLE
  5
42
102
{ACAD_REACTORS
330
2A
102
}
330
2A
100
AcDbVisualStyle
  2
Shaded
 70
    27
177
     3
291
     0
 70
    58
 90
        2
176
     1
 90
        2
176
     1
 90
        1
176
     1
 90
        2
176
     1
 40
0.6
176
     1
 40
30.0
176
     1
 62
     7
420
 16777215
176
     1
 90
        0
176
     1
 90
        4
176
     1
 62
     7
176
     1
 62
   257
176
     1
 90
        1
176
     1
 90
        1
176
     1
 40
1.0
176
     1
 90
        8
176
     1
 62
   257
176
     1
 40
1.0
176
     1
 90
        1
176
     1
 90
        6
176
     1
 90
        2
176
     1
 62
     8
420
  7895160
176
     1
 90
        3
176
     1
 90
        0
176
     1
 90
        0
176
     1
290
     0
176
     1
 90
        5
176
     1
 40
0.0
176
     1
 90
        0
176
     1
290
     0
176
     1
290
     1
176
     1
290
     1
176
     1
290
     0
176
     1
290
     0
176
     1
290
     0
176
     1
290
     0
176
     1
290
     0
176
     1
290
     0
176
     1
 90
       50
176
     1
 40
0.0
176
     1
 40
1.0
176
     1
 90
        0
176
     1
 62
    18
420
        0
176
     1
 90
       50
176
     1
 90
        3
176
     1
 62
     5
420
      255
176
     1
290
     0
176
     1
 90
       50
176
     1
 90
       50
176
     1
 90
       50
176
     1
290
     0
176
     1
 90
       50
176
     1
 62
   256
176
     0
 40
1.0
176
     0
 90
        2
176
     1
  1
strokes_ogs.tif
176
     1
290
     0
176
     1
 40
1.0
176
     1
 40
1.0
176
     1
  0
VISUALSTYLE
  5
41
102
{ACAD_REACTORS
330
2A
102
}
330
2A
100
AcDbVisualStyle
  2
Shaded with edges
 70
    26
177
     3
291
     0
 70
    58
 90
        2
176
     1
 90
        2
176
     1
 90
        1
176
     1
 90
        2
176
     1
 40
0.6
176
     1
 40
30.0
176
     1
 62
     7
420
 16777215
176
     1
 90
        1
176
     1
 90
       10
176
     1
 62
     7
176
     1
 62
   257
176
     1
 90
        2
176
     1
 90
        1
176
     1
 40
1.0
176
     1
 90
        8
176
     1
 62
   257
176
     1
 40
1.0
176
     1
 90
        1
176
     1
 90
        6
176
     1
 90
        2
176
     1
 62
     7
176
     1
 90
        3
176
     1
 90
        0
176
     1
 90
        0
176
     1
290
     0
176
     1
 90
        5
176
     1
 40
0.0
176
     1
 90
        0
176
     1
290
     0
176
     1
290
     1
176
     1
290
     1
176
     1
290
     0
176
     1
290
     0
176
     1
290
     0
176
     1
290
     0
176
     1
290
     0
176
     1
290
     0
176
     1
 90
       50
176
     1
 40
0.0
176
     1
 40
1.0
176
     1
 90
        0
176
     1
 62
    18
420
        0
176
     1
 90
       50
176
     1
 90
        3
176
     1
 62
     5
420
      255
176
     1
290
     0
176
     1
 90
       50
176
     1
 90
       50
176
     1
 90
       50
176
     1
290
     0
176
     1
 90
       50
176
     1
 62
   256
176
     0
 40
1.0
176
     0
 90
        2
176
     1
  1
strokes_ogs.tif
176
     1
290
     0
176
     1
 40
1.0
176
     1
 40
1.0
176
     1
  0
VISUALSTYLE
  5
3E
102
{ACAD_REACTORS
330
2A
102
}
330
2A
100
AcDbVisualStyle
  2
Shades of Gray
 70
    23
177
     3
291
     0
 70
    58
 90
        2
176
     1
 90
        2
176
     1
 90
        3
176
     1
 90
        0
176
     1
 40
0.6
176
     1
 40
30.0
176
     1
 62
     7
420
 16777215
176
     1
 90
        2
176
     1
 90
        2
176
     1
 62
     7
176
     1
 62
     7
176
     1
 90
        1
176
     1
 90
        1
176
     1
 40
40.0
176
     1
 90
        8
176
     1
 62
     7
176
     1
 40
1.0
176
     1
 90
        1
176
     1
 90
        6
176
     1
 90
        2
176
     1
 62
     7
176
     1
 90
        3
176
     1
 90
        0
176
     1
 90
        0
176
     1
290
     0
176
     1
 90
        1
176
     1
 40
0.0
176
     1
 90
        0
176
     1
290
     0
176
     1
290
     1
176
     1
290
     1
176
     1
290
     0
176
     1
290
     0
176
     1
290
     0
176
     1
290
     0
176
     1
290
     0
176
     1
290
     0
176
     1
 90
       50
176
     1
 40
0.0
176
     1
 40
1.0
176
     1
 90
        0
176
     1
 62
    18
420
        0
176
     1
 90
       50
176
     1
 90
        3
176
     1
 62
     5
420
      255
176
     1
290
     0
176
     1
 90
       50
176
     1
 90
       50
176
     1
 90
       50
176
     1
290
     0
176
     1
 90
       50
176
     1
 62
   256
176
     0
 40
1.0
176
     0
 90
        2
176
     1
  1
strokes_ogs.tif
176
     1
290
     0
176
     1
 40
1.0
176
     1
 40
1.0
176
     1
  0
VISUALSTYLE
  5
3F
102
{ACAD_REACTORS
330
2A
102
}
330
2A
100
AcDbVisualStyle
  2
Sketchy
 70
    24
177
     3
291
     0
 70
    58
 90
        1
176
     1
 90
        2
176
     1
 90
        2
176
     1
 90
        0
176
     1
 40
0.6
176
     1
 40
30.0
176
     1
 62
     7
420
 16777215
176
     1
 90
        2
176
     1
 90
        2
176
     1
 62
     7
176
     1
 62
     7
176
     1
 90
        1
176
     1
 90
        1
176
     1
 40
40.0
176
     1
 90
       11
176
     1
 62
     7
176
     1
 40
1.0
176
     1
 90
        1
176
     1
 90
        6
176
     1
 90
        2
176
     1
 62
     7
176
     1
 90
        6
176
     1
 90
        0
176
     1
 90
        0
176
     1
290
     0
176
     1
 90
        1
176
     1
 40
0.0
176
     1
 90
        0
176
     1
290
     0
176
     1
290
     1
176
     1
290
     1
176
     1
290
     0
176
     1
290
     0
176
     1
290
     0
176
     1
290
     0
176
     1
290
     0
176
     1
290
     0
176
     1
 90
       50
176
     1
 40
0.0
176
     1
 40
1.0
176
     1
 90
        0
176
     1
 62
    18
420
        0
176
     1
 90
       50
176
     1
 90
        3
176
     1
 62
     5
420
      255
176
     1
290
     0
176
     1
 90
       50
176
     1
 90
       50
176
     1
 90
       50
176
     1
290
     0
176
     1
 90
       50
176
     1
 62
   256
176
     0
 40
1.0
176
     0
 90
        2
176
     1
  1
strokes_ogs.tif
176
     1
290
     0
176
     1
 40
1.0
176
     1
 40
1.0
176
     1
  0
VISUALSTYLE
  5
37
102
{ACAD_REACTORS
330
2A
102
}
330
2A
100
AcDbVisualStyle
  2
Thicken
 70
    13
177
     3
291
     1
 70
    58
 90
        2
176
     1
 90
        2
176
     1
 90
        0
176
     1
 90
        0
176
     1
 40
0.6
176
     1
 40
30.0
176
     1
 62
     7
420
 16777215
176
     1
 90
        1
176
     1
 90
        4
176
     1
 62
     7
176
     1
 62
   257
176
     1
 90
        1
176
     1
 90
        1
176
     1
 40
1.0
176
     1
 90
       12
176
     1
 62
     7
176
     1
 40
1.0
176
     1
 90
        1
176
     1
 90
        6
176
     1
 90
        2
176
     1
 62
     7
176
     1
 90
        5
176
     1
 90
        0
176
     1
 90
        0
176
     1
290
     0
176
     1
 90
        1
176
     1
 40
0.0
176
     1
 90
        0
176
     1
290
     0
176
     1
290
     1
176
     1
290
     1
176
     1
290
     0
176
     1
290
     0
176
     1
290
     0
176
     1
290
     0
176
     1
290
     0
176
     1
290
     0
176
     1
 90
       50
176
     1
 40
0.0
176
     1
 40
1.0
176
     1
 90
        0
176
     1
 62
    18
420
        0
176
     1
 90
       50
176
     1
 90
        3
176
     1
 62
     5
420
      255
176
     1
290
     0
176
     1
 90
       50
176
     1
 90
       50
176
     1
 90
       50
176
     1
290
     0
176
     1
 90
       50
176
     1
 62
   256
176
     0
 40
1.0
176
     0
 90
        2
176
     1
  1
strokes_ogs.tif
176
     1
290
     0
176
     1
 40
1.0
176
     1
 40
1.0
176
     1
  0
VISUALSTYLE
  5
30
102
{ACAD_REACTORS
330
2A
102
}
330
2A
100
AcDbVisualStyle
  2
Wireframe
 70
     5
177
     3
291
     0
 70
    58
 90
        0
176
     1
 90
        2
176
     1
 90
        0
176
     1
 90
        0
176
     1
 40
0.6
176
     1
 40
30.0
176
     1
 62
     7
420
 16777215
176
     1
 90
        1
176
     1
 90
        4
176
     1
 62
     7
176
     1
 62
   257
176
     1
 90
        1
176
     1
 90
        1
176
     1
 40
1.0
176
     1
 90
        0
176
     1
 62
   257
176
     1
 40
1.0
176
     1
 90
        1
176
     1
 90
        6
176
     1
 90
        2
176
     1
 62
     7
176
     1
 90
        3
176
     1
 90
        0
176
     1
 90
        0
176
     1
290
     0
176
     1
 90
        1
176
     1
 40
0.0
176
     1
 90
        0
176
     1
290
     0
176
     1
290
     1
176
     1
290
     1
176
     1
290
     0
176
     1
290
     0
176
     1
290
     0
176
     1
290
     0
176
     1
290
     0
176
     1
290
     0
176
     1
 90
       50
176
     1
 40
0.0
176
     1
 40
1.0
176
     1
 90
        0
176
     1
 62
    18
420
        0
176
     1
 90
       50
176
     1
 90
        3
176
     1
 62
     5
420
      255
176
     1
290
     0
176
     1
 90
       50
176
     1
 90
       50
176
     1
 90
       50
176
     1
290
     0
176
     1
 90
       50
176
     1
 62
   256
176
     0
 40
1.0
176
     0
 90
        2
176
     1
  1
strokes_ogs.tif
176
     1
290
     0
176
     1
 40
1.0
176
     1
 40
1.0
176
     1
  0
VISUALSTYLE
  5
40
102
{ACAD_REACTORS
330
2A
102
}
330
2A
100
AcDbVisualStyle
  2
X-Ray
 70
    25
177
     3
291
     0
 70
    58
 90
        2
176
     1
 90
        2
176
     1
 90
        1
176
     1
 90
        1
176
     1
 40
0.5
176
     1
 40
30.0
176
     1
 62
     7
420
 16777215
176
     1
 90
        1
176
     1
 90
        0
176
     1
 62
     7
176
     1
 62
   257
176
     1
 90
        1
176
     1
 90
        1
176
     1
 40
1.0
176
     1
 90
        8
176
     1
 62
     7
176
     1
 40
1.0
176
     1
 90
        1
176
     1
 90
        6
176
     1
 90
        2
176
     1
 62
     7
176
     1
 90
        3
176
     1
 90
        0
176
     1
 90
        0
176
     1
290
     0
176
     1
 90
       13
176
     1
 40
0.0
176
     1
 90
        0
176
     1
290
     0
176
     1
290
     1
176
     1
290
     1
176
     1
290
     0
176
     1
290
     0
176
     1
290
     0
176
     1
290
     0
176
     1
290
     0
176
     1
290
     0
176
     1
 90
       50
176
     1
 40
0.0
176
     1
 40
1.0
176
     1
 90
        0
176
     1
 62
    18
420
        0
176
     1
 90
       50
176
     1
 90
        3
176
     1
 62
     5
420
      255
176
     1
290
     0
176
     1
 90
       50
176
     1
 90
       50
176
     1
 90
       50
176
     1
290
     0
176
     1
 90
       50
176
     1
 62
   256
176
     0
 40
1.0
176
     0
 90
        2
176
     1
  1
strokes_ogs.tif
176
     1
290
     0
176
     1
 40
1.0
176
     1
 40
1.0
176
     1
  0
DICTIONARYVAR
  5
175
102
{ACAD_REACTORS
330
174
102
}
330
174
100
DictionaryVariables
280
     0
  1
1:1
  0
DICTIONARYVAR
  5
17D
102
{ACAD_REACTORS
330
174
102
}
330
174
100
DictionaryVariables
280
     0
  1
3.500000
  0
DICTIONARYVAR
  5
17E
102
{ACAD_REACTORS
330
174
102
}
330
174
100
DictionaryVariables
280
     0
  1
acadiso.lin
  0
DICTIONARYVAR
  5
17A
102
{ACAD_REACTORS
330
174
102
}
330
174
100
DictionaryVariables
280
     0
  1
Standard
  0
DICTIONARYVAR
  5
179
102
{ACAD_REACTORS
330
174
102
}
330
174
100
DictionaryVariables
280
     0
  1
Standard
  0
DICTIONARY
  5
176
330
5A
100
AcDbDictionary
280
     1
281
     1
  3
ACAD_ROUNDTRIP_2008_TABLESTYLE_CELLSTYLEMAP
360
177
  0
CELLSTYLEMAP
  5
177
102
{ACAD_REACTORS
330
176
102
}
330
176
100
AcDbCellStyleMap
 90
        3
300
CELLSTYLE
  1
TABLEFORMAT_BEGIN
 90
        5
170
     1
 91
        0
 92
    32768
 62
   257
 93
        1
300
CONTENTFORMAT
  1
CONTENTFORMAT_BEGIN
 90
        0
 91
        0
 92
        4
 93
        0
300

 40
0.0
140
1.0
 94
        5
 62
     0
340
11
144
6.0
309
CONTENTFORMAT_END
171
     1
301
MARGIN
  1
CELLMARGIN_BEGIN
 40
1.5
 40
1.5
 40
1.5
 40
1.5
 40
1.5
 40
1.5
309
CELLMARGIN_END
 94
        6
 95
        1
302
GRIDFORMAT
  1
GRIDFORMAT_BEGIN
 90
        0
 91
        1
 62
     0
 92
       -2
340
14
 93
        0
 40
0.045
309
GRIDFORMAT_END
 95
        2
302
GRIDFORMAT
  1
GRIDFORMAT_BEGIN
 90
        0
 91
        1
 62
     0
 92
       -2
340
14
 93
        0
 40
0.045
309
GRIDFORMAT_END
 95
        4
302
GRIDFORMAT
  1
GRIDFORMAT_BEGIN
 90
        0
 91
        1
 62
     0
 92
       -2
340
14
 93
        0
 40
0.045
309
GRIDFORMAT_END
 95
        8
302
GRIDFORMAT
  1
GRIDFORMAT_BEGIN
 90
        0
 91
        1
 62
     0
 92
       -2
340
14
 93
        0
 40
0.045
309
GRIDFORMAT_END
 95
       16
302
GRIDFORMAT
  1
GRIDFORMAT_BEGIN
 90
        0
 91
        1
 62
     0
 92
       -2
340
14
 93
        0
 40
0.045
309
GRIDFORMAT_END
 95
       32
302
GRIDFORMAT
  1
GRIDFORMAT_BEGIN
 90
        0
 91
        1
 62
     0
 92
       -2
340
14
 93
        0
 40
0.045
309
GRIDFORMAT_END
309
TABLEFORMAT_END
  1
CELLSTYLE_BEGIN
 90
        1
 91
        1
300
_TITLE
309
CELLSTYLE_END
300
CELLSTYLE
  1
TABLEFORMAT_BEGIN
 90
        5
170
     1
 91
        0
 92
        0
 62
   257
 93
        1
300
CONTENTFORMAT
  1
CONTENTFORMAT_BEGIN
 90
        0
 91
        0
 92
        4
 93
        0
300

 40
0.0
140
1.0
 94
        5
 62
     0
340
11
144
4.5
309
CONTENTFORMAT_END
171
     1
301
MARGIN
  1
CELLMARGIN_BEGIN
 40
1.5
 40
1.5
 40
1.5
 40
1.5
 40
1.5
 40
1.5
309
CELLMARGIN_END
 94
        6
 95
        1
302
GRIDFORMAT
  1
GRIDFORMAT_BEGIN
 90
        0
 91
        1
 62
     0
 92
       -2
340
14
 93
        0
 40
0.045
309
GRIDFORMAT_END
 95
        2
302
GRIDFORMAT
  1
GRIDFORMAT_BEGIN
 90
        0
 91
        1
 62
     0
 92
       -2
340
14
 93
        0
 40
0.045
309
GRIDFORMAT_END
 95
        4
302
GRIDFORMAT
  1
GRIDFORMAT_BEGIN
 90
        0
 91
        1
 62
     0
 92
       -2
340
14
 93
        0
 40
0.045
309
GRIDFORMAT_END
 95
        8
302
GRIDFORMAT
  1
GRIDFORMAT_BEGIN
 90
        0
 91
        1
 62
     0
 92
       -2
340
14
 93
        0
 40
0.045
309
GRIDFORMAT_END
 95
       16
302
GRIDFORMAT
  1
GRIDFORMAT_BEGIN
 90
        0
 91
        1
 62
     0
 92
       -2
340
14
 93
        0
 40
0.045
309
GRIDFORMAT_END
 95
       32
302
GRIDFORMAT
  1
GRIDFORMAT_BEGIN
 90
        0
 91
        1
 62
     0
 92
       -2
340
14
 93
        0
 40
0.045
309
GRIDFORMAT_END
309
TABLEFORMAT_END
  1
CELLSTYLE_BEGIN
 90
        2
 91
        1
300
_HEADER
309
CELLSTYLE_END
300
CELLSTYLE
  1
TABLEFORMAT_BEGIN
 90
        5
170
     1
 91
        0
 92
        0
 62
   257
 93
        1
300
CONTENTFORMAT
  1
CONTENTFORMAT_BEGIN
 90
        0
 91
        0
 92
        4
 93
        0
300

 40
0.0
140
1.0
 94
        2
 62
     0
340
11
144
4.5
309
CONTENTFORMAT_END
171
     1
301
MARGIN
  1
CELLMARGIN_BEGIN
 40
1.5
 40
1.5
 40
1.5
 40
1.5
 40
1.5
 40
1.5
309
CELLMARGIN_END
 94
        6
 95
        1
302
GRIDFORMAT
  1
GRIDFORMAT_BEGIN
 90
        0
 91
        1
 62
     0
 92
       -2
340
14
 93
        0
 40
0.045
309
GRIDFORMAT_END
 95
        2
302
GRIDFORMAT
  1
GRIDFORMAT_BEGIN
 90
        0
 91
        1
 62
     0
 92
       -2
340
14
 93
        0
 40
0.045
309
GRIDFORMAT_END
 95
        4
302
GRIDFORMAT
  1
GRIDFORMAT_BEGIN
 90
        0
 91
        1
 62
     0
 92
       -2
340
14
 93
        0
 40
0.045
309
GRIDFORMAT_END
 95
        8
302
GRIDFORMAT
  1
GRIDFORMAT_BEGIN
 90
        0
 91
        1
 62
     0
 92
       -2
340
14
 93
        0
 40
0.045
309
GRIDFORMAT_END
 95
       16
302
GRIDFORMAT
  1
GRIDFORMAT_BEGIN
 90
        0
 91
        1
 62
     0
 92
       -2
340
14
 93
        0
 40
0.045
309
GRIDFORMAT_END
 95
       32
302
GRIDFORMAT
  1
GRIDFORMAT_BEGIN
 90
        0
 91
        1
 62
     0
 92
       -2
340
14
 93
        0
 40
0.045
309
GRIDFORMAT_END
309
TABLEFORMAT_END
  1
CELLSTYLE_BEGIN
 90
        3
 91
        2
300
_DATA
309
CELLSTYLE_END
  0
ENDSEC
  0
EOF
